Solitude Aeturnus - Pawns Of Anger Chords & Tabs

 

Pawns Of Anger Chords & Tabs

Solitude Aeturnus Chords & Tabs

Version: 1 Type: Bass Tab 0 ratings
1 star 2 stars 3 stars 4 stars 5 stars
comments

Pawns Of Anger Bass Tab

   
Author/Artist: Solitude Aeturnus
Title: Pawns Of Anger
Album: Through The Darkest Hour
Transcribed by: AeNaoN
Email: Aenaonrg@Hotmail.com

Standard Tuning (G,D,A,E)

INTRO
--------------------------------------------------------------------------------
--------------------------------------------------------------------------------
-------------------------------------------------------------------7--5---7--5--
-2---4--5---8-6-8---2-4-5-345---8-6-8---2-4-5-345---8-6-8---2---4---------------
                                                                              
BEFORE VERSE
----------------------------------------------------
----------------------------------------------------
-3--5--6--2--5--7--8--6----3--5--6--2--5--7--2--1---
----------------------------------------------------
[ Tab from: http://www.guitartabs.cc/tabs/s/solitude_aeturnus/pawns_of_anger_btab.html ]
VERSE - GUITAR SOLO
I think that this is also the Guitar Solo part (with different timing though)
-------------------------------------------------------------------
-------------------------------------------------------------------
---------------2---------------2---------------2---------------210-
-222-222-222-22--222-222-222-22--222-222-222-22--222-222-222-22----
                                                                              
BRIDGE - PRE-CHORUS
I Hope you find this part yourself.I hadn't enough time to try...
Anyway here's something that I believe it fits (or not).(Probably not)
------------------------------
------------------------------
--------3-4-567--8-7---6------
--2-3-4------------------5-43-

CHORUS (Another Lie From the Pawns Of Anger....)
-----------------------
-----------------------
----------------5-432--
-2-222-30-3--45--------
                                                                              
GUITAR SOLO
Just use the Verse basic line

GUITAR SOLO ENDING
------------------
------------------
------5-------3--- (or something like that)
--5--3----5--3----         

ENDING
-----------------------------------------------------------
-----------------------------------------------------------
---------------------------2-------------------------------
-3-3h5p3--3-3h5p3--3-3h5p3----3-3h5p3--3-3h5p3--3-3h5p3-00-                                                                 

Once again,take your own path, don't follow the tab itself.
Any suggestions,comments etc. mail at Aenaonrg@Hotmail.com
Comments