Solitude Aeturnus - Days Of Prayer Chords & Tabs

 

Days Of Prayer Chords & Tabs

Solitude Aeturnus Chords & Tabs

Version: 1 Type: Tab 0 ratings
1 star 2 stars 3 stars 4 stars 5 stars
comments

Days Of Prayer Tab

   
Solitude Aeturnus
"Days of Prayer"
from the album Adagio
tab by Dripping Mass of Fetal Flesh

"D" tuning

A)
|------------------------------------------------|
|------------------------------------------------|
|------------------------------------------------|
|------------------------------------------------|
|2-/7-8-2-/7-8-2-/7-8-10-8-7-8-7-----------------|
|0------0------0---------------------------------|

 gtr 2 harmonizes with (starting 3rd time)
|------------------------------------------------|
|---------------------8--------------------------|
|--9-10---9-10---9-10---10-9-10-9----------------|
|------------------------------------------------|
|7------7------7---------------------------------|
|0------0------0---------------------------------|

 gtr 1
|------------------------------------------------|
|------------------------------------------------|
|------------------------------------------------|
|------------------------------------------------|
|2-/---------------------------------------------|
|0-----------------------------------------------|

 gtr 2
|------------------------------------------------|
|------------------------------------------------|
|------------------------------------------------|
|------------------------------------------------|
|7-\--/------------------------------------------|
|0-----------------------------------------------|

B)
|------------------------------------------------|
|------------------------------------------------|
|------------------------------------------------|
|------------------------------------------------|
|2-/5-7-2-/5-7-2-/5-7-8-7-5-7--------------------|
|0------0------0---------------------------------|

gtr 2(starting 3rd time) 
|------------------------------------------------|
|------------------------------------------------|
|--/7-9\---/7-9\---/7-9-10-9-7-9\----------------|
|------------------------------------------------|
|------------------------------------------------|
|0-------0-------0-------------------------------|


 gtr 1
|------------------------------------------------|
|------------------------------------------------|
|------------------------------------------------|
|------------------------------------------------|
|2-/-\-------------------------------------------|
|0-----------------------------------------------|

 gtr 2
|------------------------------------------------|
|------------------------------------------------|
|------------------------------------------------|
|------------------------------------------------|
|7-\-/-------------------------------------------|
|0-----------------------------------------------|
[ Tab from: http://www.guitartabs.cc/tabs/s/solitude_aeturnus/days_of_prayer_tab.html ]
C) gtr 1
|------------------------------------------------|
|------------------------------------------------|
|------------------------------------------------|
|-----9-10-----9-10-----9-10-7-6h7p6-------------|
|-----7-8------7-8------7-8----------8-7---------|
|-0-0------0-0------0-0--------------------------|
  . .      . .      . .

   gtr2
|------------------------------------------------|
|----------------------------10-9h10p8-----------|
|--------------------------------------10-9------|
|------------------------------------------------|
|------------------------------------------------|
|-same as above except---------------------------|

D) gtr 1
|------------------------------------------------|
|------------------------------------------------|
|------------------------------------------------|
|-------6-7-6------------6-7-6h7p6---------------|
|--5/7~-------8-7---5/7~-----------8-------------|
|0----------------0------------------------------|


|------------------------------------------------|
|-------9-10-9h10p9-------------9-10-9h10p9------|
|--7/9~-------------10-9---7/9~-------------10---|
|------------------------------------------------|
|7-----------------------7-----------------------|
|0-----------------------0-----------------------|

E)-just like A, but leave out last note


F)  ("burning sun of hope...")
|------------------------------------------------|
|------------------------------------------------|
|------------------------------------------------|
|9-9-7-9-10-12-10-9--9-9-7-9-10-7-9-10-9-10------|
|7-7-5-7-8--10-8--7--7-7-5-7-8--5-7-8--7-8-------|
|------------------------------------------------|

G)
|------------------------------------------------|
|------------------------------------------------|
|------------------------------------------------|
|9-9-7-9-10\-/-7-6h7p6---9-9-7-9-10\-------------|
|7-7-5-7-8-\-/---------8-7-7-5-7-8-\-------------|
|------------------------------------000000000000|
                                     ............
H)-played under solo
|------------------------------------------------|
|------------------------------------------------|
|------------------------------------------------|
|9-9-7-6---10-10-7-10-12-------------------------|
|7-7-5-4-7-8--8--5-8--10-------------------------|
|0-0-----5---------------------------------------|

guitar solo-if you can play, much less tab, this
one, you are a better man than I...

after solo: gtr 1
|------------------------------------------------|
|------------------------------------------------|
|------------------------------------------------|
|---7-6h7p6--------------------------------------|
|2/---------8------------------------------------|
|0-----------------------------------------------|

gtr 2
|------------------------------------------------|
|-----10-9h10p9----------------------------------|
|---------------10-------------------------------|
|------------------------------------------------|
|7\-/--------------------------------------------|
|0-----------------------------------------------|

 the rest is all repetition.

 e-mail any corrections, comments or abuse to
 mahummuhu@hotmail.com
Comments