Solid Frog - Head Check Chords & Tabs

 

Head Check Chords & Tabs

Solid Frog Chords & Tabs

Version: 1 Type: Bass Tab 0 ratings
1 star 2 stars 3 stars 4 stars 5 stars
comments

Head Check Bass Tab

artist-solid frog
title-head check
album-?
tabbed by-Lector Vanhoughton

G ----------------------------------------------------------------------------|
D ----------------------------------------------------------------------------|
A --3--3--3--3--3--3----------------------6--6--6--6--6--6--------------------|
E --------------------4--4--4--4--4--4----------------------6--6--6--6--6--6--|

G --------------------------|
D --------------------------|
A --3--3--------6--6--------|
E --------4--4--------6--6--|

G --------------------------------------------------|
D --------------------------------------------------|
A --2--2--2--2--2--2--2--2--1--1--1--1--1--1--1--1--|
E --------------------------------------------------|

G -----------------|    |--------------------------|
D -----------------|    |--------------------------|
A -----2--2--2--2--| x3 |--------------------------|
E --4--------------|    |--1--1--1--1--1--1--1--1--|
[ Tab from: http://www.guitartabs.cc/tabs/s/solid_frog/head_check_btab.html ]
G --------------------------------------------------|
D --------------------------------------------------|
A --------------------------2--2--2--2--2--2--2--2--|
x2
E --4--4--4--4--4--4--4--4--------------------------|

G --------------------------------------------------------------------------------------------------------|
D --------------------------------------------------------------------------------------------------------|
A --------------------------------------------------------------------------------------------------------|
E --4--4--4--4--4--4--4--4--3--3--3--3--3--3--3--3--1--1--1--1--1--1--1--1--1--1--1--1--1--1--1--1--1--1--|

G ----------------------------|   |--------------------------|
D ----------------------------|   |--------------------------|
A ----2--2--2--1--1--1--0--0--| x3|--------------------------|
E --4-------------------------|   |--1--1--1--1--1--1--1--1--|

well, thats about it. If you have any ?'s you can
e-mail me at geoman_77@yahoo.com


Comments