Solid Frog - Break Me Chords & Tabs

 

Break Me Chords & Tabs

Solid Frog Chords & Tabs

Version: 2 Type: Bass Tab 0 ratings
1 star 2 stars 3 stars 4 stars 5 stars
comments

Break Me Bass Tab

artist-solid frog
title-break me
album-?
tabbed by-Lector Vanoughton

G --------------------------------|
D --------------------------------|
A --------------------------------|
E --0--0--3--4--2--2--5--6--5--5--|
           
G --------------------------|
D --------------------------|
A --------3--4--2--2--------|
E --0--4--------------4--5--|

G -------------------------|
D -------------------------|
A --3--0-------------------|
E --------0--0/2--3--3--2--|
[ Tab from: http://www.guitartabs.cc/tabs/s/solid_frog/break_me_btab_ver_2.html ]
G --------------------|    |--------------|
D --------------------|    |--------------|
A --------0--1--0--0--| x7 |--------0--1--| 
E --2--2--------------|    |--2--2--------|

G --------------------------------------------------|
D --------------------------------------------------|
A --------------------------0--0--3--4--2--2--6--7--| 
E --0--0--3--4--2--2--5--6--------------------------|


Well thats about it. If you have any questions you can
e-mail me @ geoman_77@yahoo.com
Comments