Soja - Everything Changes Chords & Tabs

 

Soja Chords & Tabs

Version: 1 Type: Tab 0 ratings
1 star 2 stars 3 stars 4 stars 5 stars
comments

Everything Changes Tab

   
=========================================
Artist: Soldiers of Jah Army
Song: Everything Changes
Transcribed by: ElviDo
=========================================

Chords : E / E / F# / F# / G#m / G#m / G#m / G#m  

Intro Guitar 1 (clean) 

E|-7--7--11-9-7-9~--7-9-11-9-7-4--7~--11-9-7-9-4--7~--11-9-7-9-7--7~----| 
B|----------------------------------------------------------------------| 
G|----------------------------------------------------------------------| 
D|----------------------------------------------------------------------| 
A|----------------------------------------------------------------------| 
E|----------------------------------------------------------------------| 
[ Tab from: http://www.guitartabs.cc/tabs/s/soja/everything_changes_tab.html ]
E|-11-9-7-9~--7-9-11-9-7-4--7~--11-9-7-9-4--7~--11-9-7-9-7~-------------| 
B|----------------------------------------------------------------------| 
G|----------------------------------------------------------------------| 
D|----------------------------------------------------------------------| 
A|----------------------------------------------------------------------| 
E|----------------------------------------------------------------------| 

Intro Guitar 2 (Distorded) 

E|----------------------------------------------------------------------| 
B|----------------------------------------------------------------------| 
G|-8v--6---6--8v--8v--6---6--8v--8v-6-----------------------------------| 
D|-------9--------------9-------------9-6v-----9-6-6~-------------------| 
A|------------------------------------------6-9---9---------------------| 
E|----------------------------------------------------------------------| 

E|----------------------------------------------------------------------| 
B|----------------------------------------------------------------------| 
G|-8v--6---6--8v--8v--6---6--8v---8/6\8-6-------------------------------| 
D|-------9--------------9-----------------9-6~------9-6v----------------| 
A|----------------------------------------------6-9---------------------| 
E|----------------------------------------------6-----------------------|
Comments