Soil - Unreal Chords & Tabs

 

Unreal Chords & Tabs

Soil Chords & Tabs

Version: 1 Type: Tab 0 ratings
1 star 2 stars 3 stars 4 stars 5 stars
comments

Unreal Tab

This is a great song to learn very simple:

Tuning: Drop C

Intro
--------------------------------------------------------------
--------------------------------------------------------------
--------------------------------------------------------------
5-hd 7----5-hd7---5-hd7--3--1---------------------------------
5---------5-------5------3--1---------------------------------
5---------5-------5------3--1---------------------------------

Verse:
[ Tab from: http://www.guitartabs.cc/tabs/s/soil/unreal_tab.html ]
--------------------------------------------------------------
--------------------------------------------------------------
--------------------------------------------------------------
5-hd 7----5-hd7---5-hd7-----1---------------------------------
5---------5-------5------3--1---------------------------------
5---------5-------5------3--1---------------------------------
                        (pluck individually)

Chorus:

--------------------------------------------------------------
--------------------------------------------------------------
--------------------------------------------------------------
5-hd 7----5-hd7---5-hd7--3--1---------------------------------
5---------5-------5------3--1---------------------------------
5---------5-------5------3--1---------------------------------


Bridge:

--------------------------------------------------------------
--------------------------------------------------------------
--------------------------------------------------------------
0--1--6-------------------------------------------------------
0--1--6-------------------------------------------------------
0--1--6-------------------------------------------------------

Comments