Soil - Two Skins Chords & Tabs

 

Two Skins Chords & Tabs

Soil Chords & Tabs

Version: 1 Type: Bass Tab 0 ratings
1 star 2 stars 3 stars 4 stars 5 stars
comments

Two Skins Bass Tab

   
Intro:

D#|---------------------------|
A#|---------------------------|
F |--5---5-5----5-------------|
A#|--0---0-0----0-----3-5-0---|


Verse 1:  4X

D#|--------------------------|
A#|--------------------------|
F |--------------------------|
A#|--0-1-3-1-0----0-3-1-0----|

Chorus 1:   1X

D#|------------------------------------|
A#|------------------------------------|
F |---5-6-6-6-6-5-----5-6-6-6-6-5------|
A#|------------------------------------|


Verse 2:  4X

D#|--------------------------|
A#|--------------------------|
F |--------------------------|
A#|--0-1-3-1-0----0-3-1-0----|


Chorus 2:

D#|--------------------------------------------------------------|
A#|--------------------------------------------------------------|
F |---5-6-6-6-6-5-----5-6-6-6-6-5---5-6-6-6-6-5----5-6-6-6-6-5-9-|
A#|--------------------------------------------------------------|


D#|------------------------------|
A#|------------------------------|
F |---5-3-6-8-55-3-3------------|
A#|------------------------3-5-0-|



Verse 3:  4X

D#|--------------------------|
A#|--------------------------|
F |--------------------------|
A#|--0-1-3-1-0----0-3-1-0----|

Chorus 3:
[ Tab from: http://www.guitartabs.cc/tabs/s/soil/two_skins_btab.html ]
D#|--------------------------------------------------------------|
A#|--------------------------------------------------------------|
F |---5-6-6-6-6-5-----5-6-6-6-6-5---5-6-6-6-6-5----5-6-6-6-6-5-9-|
A#|--------------------------------------------------------------|


D#|------------------------------|
A#|------------------------------|
F |---5-3-6-8-55-3-3------------|
A#|------------------------3-5-0-|


D#|------------------------------|
A#|------------------------------|
F |---5-3-6-8-55-3-3------------|
A#|------------------------3-5-0-|

Outro:

    
D#|---------2---------------|
A#|-------------------------|    12X
F |-------------------------|
A#|--0-3-0-----0-0-3-0-5----|  (or something close to that atleast)

D#|--------------|
A#|--------------|
F |--------------|
A#|--0-3-0-3-0-5-|


D#|---------------|
A#|---------------|
F |---------------|    7X
A#|-0-0-0-3-0-5-0-|


D#|--------------|
A#|--------------|
F |--------------|
A#|--0-3-0-3-0-5-|


Chorus 4:

D#|--------------------------------------------------------------|
A#|--------------------------------------------------------------|
F |---5-6-6-6-6-5-----5-6-6-6-6-5---5-6-6-6-6-5----5-6-6-6-6-5-9-|
A#|--------------------------------------------------------------|



D#|------------------------------|
A#|------------------------------|
F |---5-3-6-8-55-3-3------------|
A#|------------------------3-5-0-|


D#|------------------------------|
A#|------------------------------|
F |---5-3-6-8-55-3-3------------|
A#|------------------------3-5-0-|
Comments