Soil - The One Chords & Tabs

 

The One Chords & Tabs

Soil Chords & Tabs

Version: 2 Type: Tab 0 ratings
1 star 2 stars 3 stars 4 stars 5 stars
comments

The One Tab

Artist: Soil
Song: The One
Album: Scars
Guitar players: Shaun Glass & Adam Zadel
Tabber: Cru$}{3r
Tuning: Dropped D
Website (Band): http://www.soilmusic.com
Website (Tabber): http://www.crushershome.de.vu (german)

 

intro (clean):
e------------------------------------------------------|
B------------------------------------------------------|
G--7---7--7--7--7---10--10---10--10--10--10--10--10>-7-|
D--7---7--7--7--7---10--10---10--10--10--10--10--10>-7-|
A--5---5--5--5--5---8----8----8---8---8---8---8---8>-5-|
D------------------------------------------------------|
refrain:
e---------------------------|
B---------------------------|
G---------------------------|
D---5--5--5--5---8--8--8--8-|
A---5--5--5--5---8--8--8--8-|
D---5--5--5--5---8--8--8--8-|

Verse:

guitar 1:
e-------------------------------------|
B-------------------------------------|
G-------------------------------------|
D---5-5-5-5---8-8-8-8-8-8-8-8-8-8-8-8-|
A---5-5-5-5---8-8-8-8-8-8-8-8-8-8-8-8-|
D---5-5-5-5---8-8-8-8-8-8-8-8-8-8-8-8-|    * = Palm-mute
    * * * *   * * * * * * * * * * * *    

guitar 2 (comes in after guitar 1 has played 2 times)
e----------------------------|
B----------------------------|
G----------------------------|
D---5-5-5-5---8-8-8-8----8-8-|
A---5-5-5-5---8-8-8-8----8-8-|
D---5-5-5-5---8-8-8-8----8-8-|

with the refrain: (starts with "Hey now it's been so long". 
You must play it every time when
the refrain is played and Bryan isn't singing)

e-----------------------------------------------------------|
B-----------------------------------------------------------|
G-----------------------------------------------------------|
D--8--8--7--7--8--7-------8--8--7--7--8--10--8--7----------|
A--------------------8------------------------------8-------|
D-----------------------------------------------------------|
[ Tab from: http://www.guitartabs.cc/tabs/s/soil/the_one_tab_ver_2.html ]
                         or

e-----------------------------------------------------------|
B-----------------------------------------------------------|
G--3--3--2--2--3--2-------3--3--2--2--3--5--3--2------------|
D--------------------3----------------------------3---------|
A-----------------------------------------------------------|
D-----------------------------------------------------------|

try both parts and taste which sounds better to you

Interlude:
e-----------------------------------------|
B-----------------------------------------|
G-----------------------------------------|
D--5---------5---------5--5-5-5-5-5-5-5-5-|
A--5---------5---------5--5-5-5-5-5-5-5-5-|
D--5---------5---------5--5-5-5-5-5-5-5-5-|
                          * * * * * * * *
End Part:

e-----------------------------------------------------------|
B-----------------------------------------------------------|
G-----------------------------------------------------------|
D--8--8--7--7--8--7-------8--8--7--7---8--------------------|
A--------------------8--------------------8-----------------|
D-----------------------------------------------------------|

                             or

e-----------------------------------------------------------|
B-----------------------------------------------------------|
G--3--3--2--2--3--2-------3--3--2--2--3---------------------|
D--------------------3-------------------3------------------|
A-----------------------------------------------------------|
D-----------------------------------------------------------|

refrain X4
verse   X4
refrain X4
verse   X4
refrain X2
verse   X4
refrain X4
refrain X8 (start of the part with the refrain X4)
refrain  X4 (but you must stop the last tone) 
interludeX1
refrain X8
refrain X2 + Part with refrain X1
refrain X2 + End Part X1

That's it! note: This is my first tab!


Corrections to: ChristophVIPER@aol.com
Comments