Soil - Need To Feel Chords & Tabs

 

Need To Feel Chords & Tabs

Soil Chords & Tabs

Version: 1 Type: Tab 0 ratings
1 star 2 stars 3 stars 4 stars 5 stars
comments

Need To Feel Tab

Artist: Soil
Album: Scars
Song: Need To Feel

* - Let Ring
x - Palm Mute
/ - Slide Up Neck
\ - Slide Down Neck
INTR0:

e-----------------------------------------------------------------|
b-----------------------------------------------------------------|
g-----------------------------------------------------------------|    x 2
D-----------------------------------------------------------------|
A---------4-------------------------------4-------6---------------|
D-6-8-8-8---8-8-8-6-8-8-8-8-8-8-8-6-8-8-8---8-8-8---6-6-6-8-0-0-0-|

e--------------------------------------------------------------|
b--------------------------------------------------------------|
g--------------------------------------------------------------|     x 2
D-8-8-xx-8---8-xx-6-6-xx-6---6-xx-4-4-xx-4---4-xx-1-1-xx-1---1-|
A-8-8-xx-8---8-xx-6-6-xx-6---6-xx-4-4-xx-4---4-xx-1-1-xx-1---1-|
D-8-8-xx-8---8-xx-6-6-xx-6---6-xx-4-4-xx-4---4-xx-1-1-xx-1---1-|

VERSE:

e-----------------------------------------------------------------|
b-----------------------------------------------------------------|
g-----------------------------------------------------------------|    x 4
D-----------------------------------------------------------------|
A---------4-------------------------------4-------6---------------|
D-6-8-8-8---8-8-8-6-8-8-8-8-8-8-8-6-8-8-8---8-8-8---6-6-6-8-0-0-0-|

CHORUS:

e--------------------------------------------------------------|
b--------------------------------------------------------------|
g--------------------------------------------------------------|     x 2
D-8-8-xx-8---8-xx-6-6-xx-6---6-xx-4-4-xx-4---4-xx-1-1-xx-1---1-|
A-8-8-xx-8---8-xx-6-6-xx-6---6-xx-4-4-xx-4---4-xx-1-1-xx-1---1-|
D-8-8-xx-8---8-xx-6-6-xx-6---6-xx-4-4-xx-4---4-xx-1-1-xx-1---1-|

VERSE:
[ Tab from: http://www.guitartabs.cc/tabs/s/soil/need_to_feel_tab.html ]
e-----------------------------------------------------------------|
b-----------------------------------------------------------------|
g-----------------------------------------------------------------|    x 4
D-----------------------------------------------------------------|
A---------4-------------------------------4-------6---------------|
D-6-8-8-8---8-8-8-6-8-8-8-8-8-8-8-6-8-8-8---8-8-8---6-6-6-8-0-0-0-|

CHORUS:

e--------------------------------------------------------------|
b--------------------------------------------------------------|
g--------------------------------------------------------------|     x 4
D-8-8-xx-8---8-xx-6-6-xx-6---6-xx-4-4-xx-4---4-xx-1-1-xx-1---1-|
A-8-8-xx-8---8-xx-6-6-xx-6---6-xx-4-4-xx-4---4-xx-1-1-xx-1---1-|
D-8-8-xx-8---8-xx-6-6-xx-6---6-xx-4-4-xx-4---4-xx-1-1-xx-1---1-|

THEN:

e----------------------------------------|
b----------------------------------------|
g---------------------------------   x 3-|
D-8--8*----6--6*----4--4*----1--1--------|
A-8--8*----6--6*----4--4*----1--1--------|
D-8--8*----6--6*----4--4*----1--1--------|

e-------------------------------------|
b-------------------------------------|
g-------------------------------------|
D-8--8*----6--6*----4--4*----1--1--1--|
A-8--8*----6--6*----4--4*----1--1--1--|
D-8--8*----6--6*----4--4*----1--1--1--|

e-----------------------------------------------------------------|
b-----------------------------------------------------------------|
g-----------------------------------------------------------------|
D-----------------------------------------------------------------|
A---------4-------------------------------4-------6---------------|
D-6-8-8-8---8-8-8-6-8-8-8-8-8-8-8-6-8-8-8---8-8-8---6-6-6-8-0-0-0-|

e------------------------------------------------------|
b------------------------------------------------------|
g------------------------------------------------------|
D------------------------------------------------------|
A---------4--------------------------------------------|
D-6-8-8-8---8-8-8-6-8-8-8-8-8-8-8\--------------8-6-6\-|

OUTRO:

e--------------------------------------------------------------|
b--------------------------------------------------------------|
g--------------------------------------------------------------|     x 3
D-8-8-xx-8---8-xx-6-6-xx-6---6-xx-4-4-xx-4---4-xx-1-1-xx-1---1-|
A-8-8-xx-8---8-xx-6-6-xx-6---6-xx-4-4-xx-4---4-xx-1-1-xx-1---1-|
D-8-8-xx-8---8-xx-6-6-xx-6---6-xx-4-4-xx-4---4-xx-1-1-xx-1---1-|

Lead guitar will follow shortly!

   -  Life Sentence  -
Comments