Soil - Halo Chords & Tabs

 

Halo Chords & Tabs

Soil Chords & Tabs

Version: 3 Type: Tab 0 ratings
1 star 2 stars 3 stars 4 stars 5 stars
comments

Halo Tab

I just LOVE songs in normal tuning..
Heres one--Halo by soil
Tuning:eBGDAE

Just follow the sequence,I made it that way so you wont have to go back up..

e-------------------------------------------------------]
B-------------------------------------------------------]
G-------------------------------------------------------]
D--8-6------------8-6-x-x-x--x--------------------------]
A--8-6-8-6-4-1----8-6-8-6-4--6--------------------------]
E--x-x-8-6-4-1----x-x-8-6-4--6--------------------------]X2

e-------------------------------------------------------]
B-------------------------------------------------------]
G-------------------------------------------------------]
D-------------------------------------------------------]
A--4h6-4-1-1--4h6-4-1-1--4h6-4-1-1-1~4-1~4--------------]
E--4h6-4-1-1--4h6-4-1-1--4h6-4-1-1-1~4-1~4--------------]

e-------------------------------------------------------]
B-------------------------------------------------------]
G----------------------------------------1--------------]
D----------------------------------------1--------------]
A--4h6-4-1-1--4h6-4-1-1--4h6-4-1-1-1~4-1-x--------------]
E--4h6-4-1-1--4h6-4-1-1--4h6-4-1-1-1~4-1-x--------------]

e-------------------------------------------------------]
B-------------------------------------------------------]
G-------------------------------------------------------]
D-------------------------------------------------------]
A--4h6-4-1-1--4h6-4-1-1--4h6-4-1-1-1~4-1~4--------------]
E--4h6-4-1-1--4h6-4-1-1--4h6-4-1-1-1~4-1~4--------------]

e-------------------------------------------------------]
B-------------------------------------------------------]
G----------------------------------------1--------------]
D----------------------------------------1--------------]
A--4h6-4-1-1--4h6-4-1-1--4h6-4-1-1-1~4-1-x--------------]
E--4h6-4-1-1--4h6-4-1-1--4h6-4-1-1-1~4-1-x--------------]

e-------------------------------------------------------]
B-------------------------------------------------------]
G-------------------------------------------------------]
D------6-----------------6------------------------------]
A--1---6---6---4-----1---6---6---4----------------------]
E--1---x---6---4-----1---x---6---4----------------------]

e-------------------------------------------------------]
B-------------------------------------------------------]
G-------------------------------------------------------]
D------6-----------------6------------------------------]
A--1---6---6---4-----1---6---6---4r--Halo!--------------]
E--1---x---6---4-----1---x---6---4r--Halo!--------------]

e-------------------------------------------------------]
B-------------------------------------------------------]
G-------------------------------------------------------]
D------6-----------------6------------------------------]
A--1---6---6---4-----1---6---6---4----------------------]
E--1---x---6---4-----1---x---6---4----------------------]

e-------------------------------------------------------]
B-------------------------------------------------------]
G-------------------------------------------------------]
D------6-----------------6------------------------------]
A--1---6---6---4-----1---6---6---4r--Halo!--------------]
E--1---x---6---4-----1---x---6---4r--Halo!--------------]

e-------------------------------------------------------]
B-------------------------------------------------------]
G-------------------------------------------------------]
D-------------------------------------------------------]
A--4h6-4-1-1--4h6-4-1-1--4h6-4-1-1-1~4-1~4--------------]
E--4h6-4-1-1--4h6-4-1-1--4h6-4-1-1-1~4-1~4--------------]

e-------------------------------------------------------]
B-------------------------------------------------------]
G----------------------------------------1--------------]
D----------------------------------------1--------------]
A--4h6-4-1-1--4h6-4-1-1--4h6-4-1-1-1~4-1-x--------------]
E--4h6-4-1-1--4h6-4-1-1--4h6-4-1-1-1~4-1-x--------------]

e-------------------------------------------------------]
B-------------------------------------------------------]
G-------------------------------------------------------]
D-------------------------------------------------------]
A--4h6-4-1-1--4h6-4-1-1--4h6-4-1-1-1~4-1~4--------------]
E--4h6-4-1-1--4h6-4-1-1--4h6-4-1-1-1~4-1~4--------------]

e-------------------------------------------------------]
B-------------------------------------------------------]
G----------------------------------------1--------------]
D----------------------------------------1--------------]
A--4h6-4-1-1--4h6-4-1-1--4h6-4-1-1-1~4-1-x--------------]
E--4h6-4-1-1--4h6-4-1-1--4h6-4-1-1-1~4-1-x--------------]

e-------------------------------------------------------]
B-------------------------------------------------------]
G-------------------------------------------------------]
D-------------------------------------------------------]
A--4h6-4-1-1--4h6-4-1-1--4h6-4-1-1-1~4-1~4--------------]
E--4h6-4-1-1--4h6-4-1-1--4h6-4-1-1-1~4-1~4--------------]
[ Tab from: http://www.guitartabs.cc/tabs/s/soil/halo_tab_ver_3.html ]
e-------------------------------------------------------]
B-------------------------------------------------------]
G----------------------------------------1--------------]
D----------------------------------------1--------------]
A--4h6-4-1-1--4h6-4-1-1--4h6-4-1-1-1~4-1-x--------------]
E--4h6-4-1-1--4h6-4-1-1--4h6-4-1-1-1~4-1-x--------------]

e-------------------------------------------------------]
B-------------------------------------------------------]
G-------------------------------------------------------]
D-------------------------------------------------------]
A--4h6-4-1-1--4h6-4-1-1--4h6-4-1-1-1~4-1~4--------------]
E--4h6-4-1-1--4h6-4-1-1--4h6-4-1-1-1~4-1~4--------------]

e-------------------------------------------------------]
B-------------------------------------------------------]
G----------------------------------------1--------------]
D----------------------------------------1--------------]
A--4h6-4-1-1--4h6-4-1-1--4h6-4-1-1-1~4-1-x--------------]
E--4h6-4-1-1--4h6-4-1-1--4h6-4-1-1-1~4-1-x--------------]

e-------------------------------------------------------]
B-------------------------------------------------------]
G-------------------------------------------------------]
D------6-----------------6------------------------------]
A--1---6---6---4-----1---6---6---4----------------------]
E--1---x---6---4-----1---x---6---4----------------------]

e-------------------------------------------------------]
B-------------------------------------------------------]
G-------------------------------------------------------]
D------6-----------------6------------------------------]
A--1---6---6---4-----1---6---6---4r--Halo!--------------]
E--1---x---6---4-----1---x---6---4r--Halo!--------------]

e-------------------------------------------------------]
B-------------------------------------------------------]
G-------------------------------------------------------]
D------6-----------------6------------------------------]
A--1---6---6---4-----1---6---6---4----------------------]
E--1---x---6---4-----1---x---6---4----------------------]

e-------------------------------------------------------]
B-------------------------------------------------------]
G-------------------------------------------------------]
D------6-----------------6------------------------------]
A--1---6---6---4-----1---6---6---4r--Halo!--------------]
E--1---x---6---4-----1---x---6---4r--Halo!--------------]

e-------------------------------------------------------]
B-------------------------------------------------------]
G-------------------------------------------------------]
D--8-6------------8-6-x-x-x--x--------------------------]
A--8-6-8-6-4-1----8-6-8-6-4--6--------------------------]
E--x-x-8-6-4-1----x-x-8-6-4--6--------------------------]X4

e-------------------------------------------------------]
B-------------------------------------------------------]
G-------------------------------------------------------]
D-------------------------------------------------------]
A--1--3--4--3--1--3--4--3--1--3--4--3--1--3--4--3-------]
E--1--3--4--3--1--3--4--3--1--3--4--3--1--3--4--3-------]

e-------------------------------------------------------]
B-------------------------------------------------------]
G-------------------------------------------------------]
D-------------------------------------------------------]
A--4h6-4-1-1--4h6-4-1-1--4h6-4-1-1-1~4-1~4--------------]
E--4h6-4-1-1--4h6-4-1-1--4h6-4-1-1-1~4-1~4--------------]

e-------------------------------------------------------]
B-------------------------------------------------------]
G----------------------------------------1--------------]
D----------------------------------------1--------------]
A--4h6-4-1-1--4h6-4-1-1--4h6-4-1-1-1~4-1-x--------------]
E--4h6-4-1-1--4h6-4-1-1--4h6-4-1-1-1~4-1-x--------------]

e-------------------------------------------------------]
B-------------------------------------------------------]
G-------------------------------------------------------]
D------6-----------------6------------------------------]
A--1---6---6---4-----1---6---6---4----------------------]
E--1---x---6---4-----1---x---6---4----------------------]

e-------------------------------------------------------]
B-------------------------------------------------------]
G-------------------------------------------------------]
D------6-----------------6------------------------------]
A--1---6---6---4-----1---6---6---4r--Halo!--------------]
E--1---x---6---4-----1---x---6---4r--Halo!--------------]

e-------------------------------------------------------]
B-------------------------------------------------------]
G-------------------------------------------------------]
D------6-----------------6r-----------------------------]
A--1---6---6---4-----1---6r---------1-4-----------------]
E--1---x---6---4-----1---x----------1-4-----------------]

e-------------------------------------------------------]
B-------------------------------------------------------]
G-------------------------------------------------------]
D------6-----------------6------------------------------]
A--1---6---6---4-----1---6---6---4----------------------]
E--1---x---6---4-----1---x---6---4----------------------]

e-------------------------------------------------------]
B-------------------------------------------------------]
G-------------------------------------------------------]
D------6-----------------6------------------------------]
A--1---6---6---4-----1---6---6---4r---------------------]
E--1---x---6---4-----1---x---6---4r---------------------]


Tabbed By Killl_Roy
Comments