Soil - Halo Chords & Tabs

 

Halo Chords & Tabs

Soil Chords & Tabs

Version: 1 Type: Tab 0 ratings
1 star 2 stars 3 stars 4 stars 5 stars
comments

Halo Tab

this is soil's halo

dropped D tuning 2 steps

------------------------    repeat as needed
------------------------
------------------------
---------5-3-0-0--------
3h5p3h0--5-3-0-0--------
---------5-3-0-0--------
[ Tab from: http://www.guitartabs.cc/tabs/s/soil/halo_tab.html ]
verse 1
----------------------------
----------------------------
----------------------------
-3-5-3-0-0--0-3-5-3---------
-3-5-3-0-0--0-3-5-3---------
-3-5-3-0-0--0-3-5-3---------

chours
-----------
-----------
-----------
0-10-5-3---
0-10-5-3---
0-10-5-3---
Comments