Soil - Breaking Me Down Chords & Tabs

 

Breaking Me Down Chords & Tabs

Soil Chords & Tabs

Version: 7 Type: Tab 0 ratings
1 star 2 stars 3 stars 4 stars 5 stars
comments

Breaking Me Down Tab

   
Band: SOiL
Song: Breaking me down

Submited By: Crisofher W. Nickname: RUNE
E-Mail: Chad_muska3000@hotmail.com

Drop C, (all other strings down full step) C G C F A D

- P.M

INTRO
D---------------------------
A---------------------------
F--------------------------- X 2
C---------------------------
G---------------------------
C-0-1-0---0-1-0---0-1-0-3-2-

D---------------------------
A---------------------------
F--------------------------- X 4
C-0-1-0---0-1-0---0-1-0-3-2-
G-0-1-0---0-1-0---0-1-0-3-2-
C-0-1-0---0-1-0---0-1-0-3-2-

Verse

D--------      ----|
A--------      ----|
F-------- X 4  ----|
C-0-1-0x-      -0x-|
G-0-1-0x-      -0x-|
C-0-1-0x-      -0x-|

Chorus

D--------------------
A--------------------
F-------------------- X 4
C--------------------
G-1-0-6-5----1-0-3-2-
C-1-0-6-5----1-0-3-2-

Verse

D--------      ----|
A--------      ----|
F-------- X 4  ----|
C-0-1-0x-      -0x-|
G-0-1-0x-      -0x-|
C-0-1-0x-      -0x-|

Chorus

D--------------------
A--------------------
F-------------------- X 4
C--------------------
G-1-0-6-5----1-0-3-2-
C-1-0-6-5----1-0-3-2-

D---------------------------
A---------------------------
F--------------------------- X 2
C---------------------------
G---------------------------
C-0-1-0---0-1-0---0-1-0-3-2-

D---------
A---------
F---------
C-7-----4-
G-7-----4-
C-7-----4-
[ Tab from: http://www.guitartabs.cc/tabs/s/soil/breaking_me_down_tab_ver_7.html ]
D-----------------------
A-----------------------
F-----------------------
C-1-1-0-0-0---1-1-0-0-0-
G-1-1-0-0-0---1-1-0-0-0-
C-1-1-0-0-0---1-1-0-0-0-
      - - -       - - -
   
D---------
A---------
F---------
C-7-----4-
G-7-----4-
C-7-----4-

D-----------------------
A-----------------------
F-----------------------
C-1-1-0-0-0---1-1-0-0-0-
G-1-1-0-0-0---1-1-0-0-0-
C-1-1-0-0-0---1-1-0-0-0-
      - - -       - - -

D---------------------------------
A---------------------------------
F---------------------------------
C-7-7-7-7-7-7-7-7-4-4-4-4-4-4-4-4-
G-7-7-7-7-7-7-7-7-4-4-4-4-4-4-4-4-
C-7-7-7-7-7-7-7-7-4-4-4-4-4-4-4-4-
  - - - - - - - - - - - - - - - -

D-----------------------
A-----------------------
F-----------------------
C-1-1-0-0-0---1-1-0-0-0-
G-1-1-0-0-0---1-1-0-0-0-
C-1-1-0-0-0---1-1-0-0-0-
      - - -       - - -

D-----------------
A-----------------
F-----------------
C-7-7-7-7-7-7-7-7-
G-7-7-7-7-7-7-7-7-
C-7-7-7-7-7-7-7-7- 
  - - - - - - - -

Verse

D--------      ----|
A--------      ----|
F-------- X 4  ----|
C-0-1-0x-      -0x-|
G-0-1-0x-      -0x-|
C-0-1-0x-      -0x-|

D--------------------
A--------------------
F-------------------- X 8
C--------------------
G-1-0-6-5----1-0-3-2-
C-1-0-6-5----1-0-3-2-

D---------------------------      ------|
A---------------------------      ------|
F--------------------------- X 4  ------|
C-0-1-0---0-1-0---0-1-0-3-2-      -1-0x-|
G-0-1-0---0-1-0---0-1-0-3-2-      -1-0x-|
C-0-1-0---0-1-0---0-1-0-3-2-      -1-0x-|
Comments