Soil - Breaking Me Down Chords & Tabs

 

Breaking Me Down Chords & Tabs

Soil Chords & Tabs

Version: 1 Type: Tab 0 ratings
1 star 2 stars 3 stars 4 stars 5 stars
comments

Breaking Me Down Tab

   
Soil-Breaking Me Down
tabbed by Mike Gunda
Tuning: A# F A# D# G C


INTRO/MAIN RIFF
                                                     
C |------------------------------------------------------
G |------------------------------------------------------
D#|------------------------------------------------------
A#|------------------------------------------------------
F |------------------------------------------------------
A#|--0-3-0------0-3-0----0-3-0-3-2-----------------------

C |------------------------------------------------------
G |------------------------------------------------------
D#|------------------------------------------------------
A#|--0-3-0------0-3-0----0-3-0-3-2-----------------------
F |--0-3-0------0-3-0----0-3-0-3-2-----------------------
A#|--0-3-0------0-3-0----0-3-0-3-2-----------------------

VERSE
C |----------------------
G |----------------------
D#|----------------------
A#|----------------------
F |--0-3-0---------------
A#|--0-3-0---------------
[ Tab from: http://www.guitartabs.cc/tabs/s/soil/breaking_me_down_tab.html ]
CHORUS
(gtr.1)
C |------------------------------------------------------
G |------------------------------------------------------
D#|------------------------------------------------------
A#|---12----5----3----2----------------------------------
F |---12----5----3----2----------------------------------
A#|---12----5----3----2----------------------------------
(gtr.2)
C |------------------------------------------------------
G |------------------------------------------------------
D#|------------------------------------------------------
A#|---12-12---5-5-5---12-12---5-5--3---------------------
F |---12-12---5-5-5---12-12---5-5--3---------------------
A#|---12-12---5-5-5---12-12---5-5--3---------------------


BRIDGE
C |------------------------------------------------------
G |------------------------------------------------------
D#|------------------------------------------------------
A#|---6----10-----0-3-0--0-0---0-3-0--0-0----------------
F |---6----10-----0-3-0--0-0---0-3-0--0-0----------------
A#|---6----10-----0-3-0--0-0---0-3-0--0-0----------------x4
(third and fourth times)
C |------------------------------------------------------
G |------------------------------------------------------
D#|------------------------------------------------------
A#|---6-6-6-6--6-6-6-6---10-10-10-10--10-10-10-10--------
F |---6-6-6-6--6-6-6-6---10-10-10-10--10-10-10-10--------
A#|---6-6-6-6--6-6-6-6---10-10-10-10--10-10-10-10--------
   P.M.--------------------------------------------------
(then main riff)

Soil ROCK especially live and this is a fucker of a song.
sfgjsjghm;S3Jhatsonelephantsinlongtrousersparade
Comments