Soggy Bottom Boys - Man Of Constant Sorrow Chords & Tabs

 

Man Of Constant Sorrow Chords & Tabs

Soggy Bottom Boys Chords & Tabs

Version: 1 Type: Tab 1 rating
1 star 2 stars 3 stars 4 stars 5 stars
comments

Man Of Constant Sorrow Tab

Soggy Bottom Boys
Man of Constant Sorrow
From the Soundtrack of O'Brother Where art thou'?
Transcribed by Joseph Cook
Standard E Tuning Capo 5th Fret
[ Tab from: http://www.guitartabs.cc/tabs/s/soggy_bottom_boys/man_of_constant_sorrow_tab.html ]
           
|---------0-0-----------0-0---------------1-1-------3-3---------0-|
|---------1-1-----------1-1-----0---------1-1-------3-3---------1-|
|-------0-0-0-0---------0-0---------------2-2----2--4-4---------0-|
|---2-3---2-2---2r0-----2-2-0h2---2r0-----3-3----3--5-5--5-5r3--2-|
|-3-------3-3-------3-3-3-3------------3--3-3----3--5-5-------5-3-|
|-----------------------------------------1-1--0h1--3-3-----------|
capo 5th   

|--------3-3----------0---|
|--------3-3----------1---|
|---2-3--4-4----------0---|
|---3-4--5-5-5-5r3----2---|
|---3-4--5-5-------5--3---|
|-0h1-2--3-3--------------|

play along with the song on the soundtrack and enjoy!   
Comments