Soggy Bottom Boys - I Am The Man Of Constant Sorrow Chords & Tabs

 

I Am The Man Of Constant Sorrow Chords & Tabs

Soggy Bottom Boys Chords & Tabs

Version: 1 Type: Bass Tab 0 ratings
1 star 2 stars 3 stars 4 stars 5 stars
comments

I Am The Man Of Constant Sorrow Bass Tab

   
Pretty easy bass line. If you are familiar with 4/4 time, then you will understand
this next part. The song is in 4/4 time, and you hold each note for four beats. If
you are not familiar with 4/4 time, then just listen to the song, you will pick it
up within the first verse, I guarentee. My IM Screenname is bassplaya4life14, so IM
me sometime and tell me what you think.

[ Tab from: http://www.guitartabs.cc/tabs/s/soggy_bottom_boys/i_am_the_man_of_constant_sorrow_btab.html ]
Standard Tuning
E A D G
Intro
G------------------------------------------|
D------------------------------------------|
A----------3-------------------------------|
E--1---1---------1-------------------------|

Rest of the song goes like this:

G-----------------------------------------------------|
D-----------------------------------------------------|
A----------1----3-----------------1----3-------3------|
E--1---1------------1----1----1------------1--------1-|

Remember to hold each note to the other, DO NOT PUT ANY GAPS IN BETWEEN THE NOTES!!!!!
Comments