Soggy Bottom Boys - I Am A Man Of Constant Sorrow Chords & Tabs

 

I Am A Man Of Constant Sorrow Chords & Tabs

Soggy Bottom Boys Chords & Tabs

Version: 3 Type: Tab 0 ratings
1 star 2 stars 3 stars 4 stars 5 stars
comments

I Am A Man Of Constant Sorrow Tab

   
!!! Canada !!!

I Am A Man of Constant Sorrow-The Soggy Bottom Boys
O Brother, Where Art Thou? Soundtrack

Tuning:
D A D G A D

*capo 3rd fret*

Intro:

d------------------------------------0--------0-------------------
a------------------------------------0--------0-------------------
g-----------------------0------------2-----2----------------------
d---------------3-------0-0----------0-----0--------0-0-0---------
a-3h5-5-0-3-5-5-5-0-5-3-----------0----0---0----0---0-0-0---------
d-0---0---0---0---0-0-------5-3b--0----0--------0-----------------

d-----------------------------------------------------------------
a-2---2------2-2-----2--------------------------------------------
g-2---2------2-2---2-2--2----2---2------------0---0---------------
d-2------2-2---2--------2-0--0---0----0-------0---0-0-------------
a-0------------0--------0----0--------0-3h5-5-------0-0-----------
d----------------------------0------0---0-------0--------3b-------

Verses:

d-------------------0--------------------------0---0--------------
a-------------------0----------------------0---0---0--------------
g-2---2---2------2--2---------------2------2---2---2------0-0-----
d-0---0-0-0--0---0--0--0----0---0---0--0-0-0-0---0----0---0-0-----
a-0----------0---0-----x----x---0------0-0---0--------x-----------
d-0--------------0-----3/5--5---0--------------------/3-----------

d--------------------------------------2--------------------------
a-----------------------------------2--2------------2---2---------
g-0---0----0---0--0--0-0--0-0-0-0---2-------2-2-2---2---2---------
d-0---0--0-0-0-0--0--0-0--0-0-0-0---2-----2-----2-----2----0--0---
a-x------x--------x-----------------0-----------0----------0--0---
d-5------5--------5-----------------------------------------------
[ Tab from: http://www.guitartabs.cc/tabs/s/soggy_bottom_boys/i_am_a_man_of_constant_sorrow_tab_ver_3.html ]
d-----------------------------------------------------------------
a---------------------2-------------------------------------------
g-----------------0---2-------------------------------------------
d-----------------x---0-------0-----------------------------------
a-0---0---0---3-5-5p3----0-0--0-----------------------------------
d-0-----0---0-0-0-0------0----3b----------------------------------

d----------------------------------------------0-------0----------
a--------------------0-------------------------0-------0----------
g----2---2---2-2-----2-----------2---2--2---2--2--2----2----2-----
d----0-0-0-0-0-0---0-0--0----0---0------0-0-0--0--0-0--0----0-----
a-0------------0---0----x--------0-------------0-------x----------
d-0------------0--------3/5--5---0-------------0-------3----------

d-----------------------------------------------------------------
a-----------------------------------------2-----------------------
g-0---------0---0-0---0--0--0-0-0--0--2---2---2-2-2--2-2----------
d-0---0-0-0-0---0-0---0--0--0-0-0--0--2---2---2-2-2--2-2---2------
a-x----------------------x------x-----0-----------0----0----------
d-5----------------------5------5--------------------------3b-----

d-----0------------0----------------------------------------------
a-----0------------0-----------------------2----------------------
g-2---2------------2--------2---2-------2--2--2-------------------
d-0---0---2-0------0--0--0--2---------2-2--2--2--2----2-0---------
a-0-----0-0-x---0--0--0--0--0-------0------0--0--0----0-0---------
d-0-----0---3-0-0--------------------------------3b---------------

d-----------------------------------------------------------------
a-----------------------------------------------------------------
g----------------------0---0--------------------------------------
d-0---0----0-----------0---0--------------------------------------
a-0---0--0-0-3h5---5p3-0h3-0---0----------------------------------
d-0------0-0-0---0-0---0-----3p0----------------------------------


thatís all

this is from gtr world acoustic
i think they missed some parts in it.....
i didnít tab all the fills, cuz it woulda taken forever

trevor jones
timmy91199@yahoo.ca
Comments