Soggy Bottom Boys - I Am A Man Of Constant Sorrow Chords & Tabs

 

I Am A Man Of Constant Sorrow Chords & Tabs

Soggy Bottom Boys Chords & Tabs

Version: 2 Type: Tab 5 ratings
1 star 2 stars 3 stars 4 stars 5 stars
comments

I Am A Man Of Constant Sorrow Tab

heres the tab for man if constant sorrows ive seen all the ones so far and 
and i dont think they have the right riff but here it is...this is right
is sure of it....Drop D tuning capo 3rd fret (no rhythm shown)

intro riff
-----------------------------------------
-----------------------------------------
-----------------------------------------
--------------3b-0-----------------------
--3h5---3h5---------5-0--3-0-------------
--0-----0---------------------4b--0------
[ Tab from: http://www.guitartabs.cc/tabs/s/soggy_bottom_boys/i_am_a_man_of_constant_sorrow_tab_ver_2.html ]
into this chord progression 

--0----3----0---------------
--3----0----2---------------
--2----0----2---------------
--0----0----2---------------
--0----0----0---------------
--0----5----0---------------

thats pretty much the song but you can throw in this little riff when 
goin back to the intro riff from the chords

-------------------------
------------------------
-------------------------
-----------3--0------------
-0--3--5--------------------
------------------4b--0-----
Comments