Soft Cell - Tainted Love Chords & Tabs

 

Tainted Love Chords & Tabs

Soft Cell Chords & Tabs

Version: 3 Type: Tab 0 ratings
1 star 2 stars 3 stars 4 stars 5 stars
comments

Tainted Love Tab

-------------------------------------------------------------------------------
			     Tainted Love - Softcell
-------------------------------------------------------------------------------
Tabbed by: Deck_dalo
Email: deck_dalo@yahoo.com.au
[ Tab from: http://www.guitartabs.cc/tabs/s/soft_cell/tainted_love_tab_ver_3.html ]
Tuning: Normal
Verse:
e|-3---3---6---6---6---6---3---3---|
B|-3---3---6---6---6---6---3---3---|
G|-3---3---6---6---8---8---5---5---|      Times ?
D|-5---5---8---8---8---8---5---5---|
A|-5---5---8---8---6---6---3---3---|
E|-3---3---6---6---6---6---3---3---|
Comments