Soft Cell - Tainted Love Chords & Tabs

 

Tainted Love Chords & Tabs

Soft Cell Chords & Tabs

Version: 2 Type: Bass Tab 0 ratings
1 star 2 stars 3 stars 4 stars 5 stars
comments

Tainted Love Bass Tab

This is the bass tab for Tainted Love by Soft Cell.  It's pretty simple; I
was just figuring out how to use the tab program, but I thought I'd stick
it in the archive anyway.


                              Tainted Love
                               (Soft Cell)


         q  q  q  q     q  q  e  q.
G---||---------------|---------------||
D---||*--------------|--1--1--------*||
A---||*--------1--1--|--------1--3--*||
E---||---3--3--------|---------------||


VERSE:  Sometimes I feel (etc)


       q  q  q  q     q  q  q  q
G---|--------------|--------------|
D---|--------------|--------------|
A---|--------------|--1--1--1--1--|
E---|--3--3--3--3--|--------------|


       Drive into the heart of me (back to VERSE)
[ Tab from: http://www.guitartabs.cc/tabs/s/soft_cell/tainted_love_btab_ver_2.html ]
       q  q  q  q     q  q  q  q     q  q  q  q     q  q  q  q
G---|--------------|--------------|--------------|--------------|
D---|--------------|--------------|--------------|--------------|
A---|--------------|--------------|--1--1--1--1--|--1--1--1--1--|
E---|--3--3--3--3--|--3--3--3--3--|--------------|--------------|


CHORUS:  Once I ran to you (etc)

       q  q  q  q     q  q  q  q     q  q  q  q     q  q  q  q
G---|--------------|--------------|--------------|--------------|
D---|--1--1--1--1--|--1--1--1--1--|--------------|--------------|
A---|--------------|--------------|--3--3--3--3--|--3--3--3--3--|
E---|--------------|--------------|--------------|--------------|

       q  q  q  q     q  q  q  q
G---|--------------|--------------|
D---|--------------|--------------|
A---|--3--3--3--3--|--3--3--3--3--|
E---|--------------|--------------|


(back to VERSE)



Comments