Soellner Hans - Hod Mei Oida Amoi Gsogt Chords & Tabs

 

Hod Mei Oida Amoi Gsogt Chords & Tabs

Soellner Hans Chords & Tabs

Version: 1 Type: Tab 0 ratings
1 star 2 stars 3 stars 4 stars 5 stars
comments

Hod Mei Oida Amoi Gsogt Tab

   
Intro: G|e|C|D7 2x
G                     e      C            D7            G         e        C           D7
Wenn a typ heid jedn dog an joint eineziagt, dann issa a grattla hod mia mei voda moi erklärt
       G                         e      C         D7             G                 e            C         
wenn a spritzt dann ghert a weg des assoziale element, aba ganz normal is wenn er jedn dog sternhagelblau 
     D7        G     e    C   D7
vom wirtshaus kimmt


nach jeder strophe wieder einmal intro


Wenn uns da pfarra in da kirch heid a schene predigt hoit und uns erzäit wos ma wäin soin, dass uns ned da 
daife hoid, dann sogt koana wos aba wenn i gegan faschismus demonstrier, dann sitz i morgn scho auf da 
stross, wei se mei voda wega mia scheniert.

Wenn a frau bachmair eiskoid im gerichtssoi oan daschiasst, hod scho recht sogt mai voda und hod no mitleid 
mit ihrwenn sich wegam herrn zimmamann a türke s leben nimmt, dann schert si koana wos, weis eh gnuag türkn 
bei uns gibt

Wenn a dirndl jede woch an andan typn hod, dann is a schnoinn hod mia mei voda amoi gsogt, wenn ses für gäid 
mochd, dann is a hur aba wenn i jedn dog a andre hob, dann is a furchbar stoiz auf sein buam

Er häd gern biologie studiert, aba er is dann doch a becka worn weil a koa bafög griagt hod und seine oidn 
warn recht arm, am dokta seine schrazn, de studiern medizin, die kennan stinga vor blädheit de hauptsach is 
de kohle stimmt

a oida nazi hots bei uns bis zum schuidirektor brocht, er schwärmt heid no von seim hitla und nia hod wer 
wos gsogt, mai freindin hod in ulm drom fürn friedn demonstriert, ein schlechtes beispiel für die kinder 
homs gsogt und sofort ham ses vom dienst suspendiert

frira hod ma des wos ma si denkt hod ganz einfach gsogt, damit ma heid dsogt was ma ned denkt studiert ma 
kommunikationswissenschaft, da is da kohl des beste beispiel, wenn der a rede hoit, dann konna a stund longs 
mai aufmocha oba wos a song woit, des hod koana vo uns gschnoit
[ Tab from: http://www.guitartabs.cc/tabs/s/soellner_hans/hod_mei_oida_amoi_gsogt_tab.html ]
dua ma sche brav sei und dua di nia über wen beschwern, hoit dai mai denk da dein teil gedankn kann koana 
hern, loss de hibiagn wias de brauchan, des duad da doch ned weh, a schena horschnitt und sche ozong so 
bringst as zu wos hod mei voda gsogt weast as scho seng.

Häd i mei läbdog nua des gmacht wos andre laid zu mia song häd i bloß bucklt und war grocha und war nia aufd 
schnauzn gfoin, war is des was ma heid brauchad, willenlos und bläd      i häds sichalich vui leichta aba 
so glücklich wia i jetz bin war i ned      nananana so glücklich war i sicha ned

zum schluss:

nach unten geschrubbt
      G    e   C   D7  G 
-------3-----------2---3-------------------------------------------------------------------------------------
---------------1---1-----------------------------------------------------------------------------------------
-------------------2-----------------------------------------------------------------------------------------
-----------2---2---------------------------------------------------------------------------------------------
-------2---2---3-------2-------------------------------------------------------------------------------------
-------3---------------3-------------------------------------------------------------------------------------


des tab dazu müsste ungefähr so ausschaun und wird die ganze zeit wiederholt
G         e          C           D7
--------3---------0-----------0------------2-----------------------------------------------------------------
----0---0------0--0-------1---1---------1--1-----------------------------------------------------------------
----0----------0----------0-------------2--------------------------------------------------------------------
------------------------------------0---0--------------------------------------------------------------------
----------2----2-------3--3----------------------------------------------------------------------------------
-3--3------------------------------------------3-------------------------------------------------------------

wenn ihr tips habt dann mailt bitte an phaili@web.de

viel spass damit

Phaili
Comments