Sodom - Persecution Mania Chords & Tabs

 

Persecution Mania Chords & Tabs

Sodom Chords & Tabs

Version: 1 Type: Tab 0 ratings
1 star 2 stars 3 stars 4 stars 5 stars
comments

Persecution Mania Tab

"Persecution Mania"
by Sodom
from the album PERSECUTION MANIA
Transcribed by Matt Johnsen
matt@amicrosys.com

INTRO

play 8 times

------------------------------------|------------------------------------||
------------------------------------|------------------------------------||
------------------------------------|------------------------------------||
------------------------------------|------------------------------------||
-------------------3-3-3-3--2-2-2-2-|------------------------------------||
-0-0-0-0--0-0-0-0-------------------|-3-3-3-3--3-3-3-3--2-2-2-2--3-3-3-3-||


PREVERSE

-----|-----|-----|-----||
-----|-----|-----|-----||
-----|-----|-----|-----||
--2--|--2--|--2--|--2--||
--2--|--2--|--2--|--2--||
--0--|--0--|--0--|--0--||


VERSE

play 3 times

-----|-----|-----|--------|-----|-----|-----|-----||
-----|-----|-----|--------|-----|-----|-----|-----||
-----|-----|-----|--------|-----|-----|-----|-----||
-----|-----|-----|--------|-----|-----|-----|-----||
--2--|--5--|--7--|--8--7--|--2--|--5--|--7--|--3--||
--0--|--3--|--5--|--6--5--|--0--|--3--|--5--|--1--||


PRE CHORUS

play 2 times

------------------------------------|------------------------------------|
------------------------------------|------------------------------------|
------------------------------------|------------------------------------|
------------------------------------|------------------------------------|
-8-8-8-8--7-7-7-7-------------------|-8-8-8-8--7-7-7-7--6-6-6-6--5-5-5-5-|
-------------------5-5-5-5--6-6-6-6-|------------------------------------|

------------------------------------|------------------------------------||
------------------------------------|------------------------------------||
------------------------------------|------------------------------------||
------------------------------------|------------------------------------||
-6-6-6-6--5-5-5-5-------------------|-6-6-6-6--5-5-5-5--4-4-4-4--3-3-3-3-||
-------------------3-3-3-3--4-4-4-4-|------------------------------------||


CHORUS

play 2 times
[ Tab from: http://www.guitartabs.cc/tabs/s/sodom/persecution_mania_tab.html ]
------------------------------------|------------------------------------|---|
------------------------------------|------------------------------------|---|
------------------------------------|------------------------------------|---|
------------------------------------|------------------------------------|-9-|
-0-0-0-0--0-0-0-0--0-0-0-0--0-0-0-0-|-0-0-0-0--0-0-0-0--0-0-0-0--0-0-0-0-|-7-|
------------------------------------|------------------------------------|---|

------------------------------------|------------------------------------|---|
------------------------------------|------------------------------------|---|
------------------------------------|------------------------------------|---|
------------------------------------|------------------------------------|-3-|
-0-0-0-0--0-0-0-0--0-0-0-0--0-0-0-0-|-0-0-0-0--0-0-0-0--0-0-0-0--0-0-0-0-|-1-|
------------------------------------|------------------------------------|---|


play prechrous 2 times
play chorus 2 times
play 


SOLO RHYTHM A

play 2 times

------------------------------------|-----|-----|--------|
------------------------------------|-----|-----|--------|
------------------------------------|-----|-----|--------|
------------------------------------|--5--|--7--|--8--7--|
-0-0-0-0--0-0-0-0--0-0-0-0--0-0-0-0-|--3--|--5--|--6--5--|
------------------------------------|-----|-----|--------|

------------------------------------|-----|-----|-----||
------------------------------------|-----|-----|-----||
------------------------------------|-----|-----|-----||
------------------------------------|--5--|--7--|--3--||
-0-0-0-0--0-0-0-0--0-0-0-0--0-0-0-0-|--3--|--5--|--1--||
------------------------------------|-----|-----|-----||


SOLO RHYTHM B

play 2 times

------------------------------------|-----|-----|--------|
------------------------------------|-----|-----|--------|
------------------------------------|-----|-----|--------|
------------------------------------|-----|-----|--------|
------------------------------------|--5--|--7--|--8--7--|
-0-0-0-0--0-0-0-0--0-0-0-0--0-0-0-0-|--3--|--5--|--6--5--|

------------------------------------|-----|-----|-----||
------------------------------------|-----|-----|-----||
------------------------------------|-----|-----|-----||
------------------------------------|-----|-----|-----||
------------------------------------|--5--|--7--|--3--||
-0-0-0-0--0-0-0-0--0-0-0-0--0-0-0-0-|--3--|--5--|--1--||

play solo rhythm A 2 times
play solo rythm B 2 times
play intro 8 times
Comments