Sodom - Outbreak Of Evil Chords & Tabs

 

Outbreak Of Evil Chords & Tabs

Sodom Chords & Tabs

Version: 1 Type: Tab 0 ratings
1 star 2 stars 3 stars 4 stars 5 stars
comments

Outbreak Of Evil Tab

   
"Outbreak of Evil"
by Sodom
from the album PERSECUTION MANIA
transcribed by Andres Usma
wuv@col2.telecom.com.co


Fig. 1 (with palm muting)
E----------------------------------------------------
B----------------------------------------------------
G----------------------------------------------------
D----------------------------------------------------
A----------------------------------------------------
E-0-0-0-0-0-0-0-0-0-0-0-0-0-0-0-0-0-0-0-0-0-0-0-0-0--

E----------------------------------------------------
B----------------------------------------------------
G----------------------------------------------------
D----------------------------------------------------
A----------------------------------------------------
E-2-2-2-2-2-2-2-2-2-2-2-2-2-2-2-2-2-2-2-2-2-2-2-2-2-2

E----------------------------------------------------
B----------------------------------------------------
G----------------------------------------------------
D----------------------------------------------------
A----------------------------------------------------
E-3-3-3-3-3-3-3-3-3-3-3-3-3-3-3-3-3-3-3-3-3-3-3-3-3-3

E----------------------------------------------------
B----------------------------------------------------
G----------------------------------------------------
D----------------------------------------------------
A----------------------------------------------------
E-2-2-2-2-2-2-2-2-2-2-2-2-2-2-2-2-2-2-2-2-2-2-2-2-2-2

Fig. 2 (play 4 times)
E---------------------------       
B---------------------------       
G---------------------------
D---------------------------
A--2--2--5/7----7--7--------
E--0--0--3/5----5--5--------

CHORUS Fig. 3 (palm muting)  
E--------------------------------------------------
B--------------------------------------------------
G--------------------------------------------------
D-4------------------------------------------------
A-2-2-2-2-2-2-2-2-2-2-2-2-2-2-2-2-2-2-2-2-2-2-2-2-2
E--------------------------------------------------
                                   Shrill cries!!

[ Tab from: http://www.guitartabs.cc/tabs/s/sodom/outbreak_of_evil_tab.html ]
E--------------------------------------------------
B--------------------------------------------------
G--------------------------------------------------
D-2------------------------------------------------
A-0-0-0-0-0-0-0-0-0-0-0-0-0-0-0-0-0-0-0-0-0-0-0-0-0
E--------------------------------------------------
                                   Angel dies!!
  
E--------------------------------------------------
B--------------------------------------------------
G--------------------------------------------------
D-4------------------------------------------------
A-2-2-2-2-2-2-2-2-2-2-2-2-2-2-2-2-2-2-2-2-2-2-2-2-2
E--------------------------------------------------
                                   Shrill cries!!
(Let ring)
E--------------------------------------------------
B--------------------------------------------------
G--------------------------------------------------
D--2-----------------------------------------------
A--0----------5-----------2------------------------
E-------------3-----------0------------------------
  Out       break      of evil!!

[repeat Fig.2, 4 times]

Fig. 4 (play twice)
E-------------------------------------------------------------
B-------------------------------------------------------------
G-------------------------------------------------------------
D--4-------------------------------------------7---6---7---6--
A--2-2-2-2-2-2-2-2-2-2-2-2-2-2-2-2-2-2-2-2-2---5---4---5---4--
E-------------------------------------------------------------

E-------------------------------------------------------------
B-------------------------------------------------------------
G-------------------------------------------------------------
D--4-------------------------------------------2--------------
A--2-2-2-2-2-2-2-2-2-2-2-2-2-2-2-2-2-2-2-2-2---0-------5------
E------------------------------------------------------3------

E-------------------------------------------------------------
B-------------------------------------------------------------
G-------------------------------------------------------------
D--4-------------------------------------------7---6---7---6--
A--2-2-2-2-2-2-2-2-2-2-2-2-2-2-2-2-2-2-2-2-2---5---4---5---4--
E-------------------------------------------------------------

E-------------------------------------------------------------
B-------------------------------------------------------------
G-------------------------------------------------------------
D--4----------------------------------------------------------
A--2-2-2-2-2-2-2-2-2-2-2-2-2-2-2-2-2-2-2-2-2---5--------------
E----------------------------------------------3--------------

Fig 5. (play twice)
[repeat Fig. 1, except 4th line]
[repeat Fig. 2, 4 times]
[repeat CHORUS Fig. 3]
[repeat Fig. 2, 4 times]
[repeat Fig.4 for SOLO twice]
Comments