Sodom - Christ Passion Chords & Tabs

 

Christ Passion Chords & Tabs

Sodom Chords & Tabs

Version: 1 Type: Tab 0 ratings
1 star 2 stars 3 stars 4 stars 5 stars
comments

Christ Passion Tab

   
"Christ Passion"
by Sodom
from the album PERSECUTION MANIA
Transcribed by Matt Johnsen
matt@amicrosys.com

INTRO

play 3 times with ending A, once with ending B

--------------------------|-----------------------|
--------------------------|-----------------------|
--------------------------|-----------------------|
--------------------------|---------------------7-|
-------7--------10--------|--7--------10----------|
-0--0-----0--0------0--0--|-----0--0------0--0----|

                             *Ending A                *Ending B
--------------------------|  -----------------------||  -------------||
--------------------------|  -----------------------||  -------------||
--------------------------|  -----------------------||  -------------||
--------------------------|  -------------------8-8-||  -------------||
-------7--------10--------|  --7--------8-----------||  --3--2-----2-||
-0--0-----0--0------0--0--|  -----0--0-----0--0-----||  --------3--0-||


VERSE

play 4 times
(play _first_time_in_song_only_ with Intro A, all other times with Intro B)

*Intro A
----------------------------|
----------------------------|
----------------------------|
-7---------------------5--6-|
-5--5-5-5--5-5-5--5-5--3--4-|
----------------------------|

*Intro B
----------------------------| ----------------------------|
----------------------------| ----------------------------|
----------------------------| ----------------------------|
-7---------------------5--8-| -7---------------------5--8-|
-5--5-5-5--5-5-5--5-5--3--6-| -5--5-5-5--5-5-5--5-5--3--6-|
----------------------------| ----------------------------|

----------------------------|------------||
----------------------------|------------||
----------------------------|------------||
-7---------------------5--8-|-10---9---5-||
-5--5-5-5--5-5-5--5-5--3--6-|-8----6---3-||
----------------------------|------------||


POSTVERSE

play 2 times

----------------------------------|----------------------------------|
----------------------------------|----------------------------------|
----------------------------------|----------------------------------|
----------------------------2---5-|----------------------------2---5-|
-2-2-2-2--2-2-2-2--2-2-2-2--0---3-|-2-2-2-2--2-2-2-2--2-2-2-2--0---3-|
----------------------------------|----------------------------------|

----------------------------------|---------||
----------------------------------|---------||
----------------------------------|---------||
----------------------------2---5-|-7--5--2-||
-2-2-2-2--2-2-2-2--2-2-2-2--0---3-|-5--3--0-||
----------------------------------|---------||

play verse 2 times
play postverse 2 times

CONNECTING MEASURES

play this between postverse and prechorus first time only

----------|-----||
----------|-----||
----------|-----||
-7--5--2--|--4--||
-5--3--0--|--2--||
----------|-----||


PRECHORUS

play 5 times

------------------------------|------------------------------|
------------------------------|------------------------------|
------------------------------|------------------------------|
-4----------------------------|------------------------------|
-2--2-2-2-2--2-2-2-2--2-2-2-2-|-2-2-2-2--2-2-2-2--2-2-2-2--4-|
------------------------------|----------------------------2-|

------------------------------|------------------------||
------------------------------|------------------------||
------------------------------|------------------------||
------------------------------|-------------------6--6-||
-3----------------------------|-------------------4--4-||
-1--1-1-1-1--1-1-1-1--1-1-1-1-|-1-1-1-1--1-1-1-1-------||


CHORUS

play 4 times
[ Tab from: http://www.guitartabs.cc/tabs/s/sodom/christ_passion_tab.html ]
------------------------------------|------------------------------------|
------------------------------------|------------------------------------|
------------------------------------|------------------------------------|
------------------------------------|------------------------------------|
------------------------------------|------------------------------------|
-4-4-4-4--4-4-4-4--4-4-4-4--4-4-4-4-|-4-4-4-4--4-4-4-4--4-4-4-4--5-5-5-5-|

------------------------------------|------------------------------------||
------------------------------------|------------------------------------||
------------------------------------|------------------------------------||
------------------------------------|------------------------------------||
------------------------------------|------------------------------------||
-0-0-0-0--0-0-0-0--0-0-0-0--0-0-0-0-|-1-1-1-1--1-1-1-1--5-5-5-5--5-5-5-5-||


play prechorus 4 times
play chorus 4 times


POST CHORUS

--------|-----------|-----------------|-----------|
--------|-----------|-----------------|-----------|
--------|-----------|-----------------|-----------|
--------|-----------|-----------------|-----------|
--6--7--|--2--3--7--|-6--6-6-6-6---7--|--2--3--7--|
--4--5--|--0--1--5--|-4--4-4-4-4---5--|--0--1--5--|

                                                                hold
------------------|-----------|------------------|-----------|-----||
------------------|-----------|------------------|-----------|-----||
------------------|-----------|------------------|-----------|-----||
------------------|-----------|------------------|-----------|-----||
--6--6-6-6-6---7--|--2--3--7--|--6--6-6-6-6---7--|--2--3--7--|--6--||
--4--4-4-4-4---5--|--0--1--5--|--4--4-4-4-4---5--|--0--1--5--|--4--||


BRIDGE SEGUE

play once

------------------------------------|------------------------------------||
------------------------------------|------------------------------------||
------------------------------------|------------------------------------||
------------------------------------|------------------------------------||
------------------------------------|------------------------------------||
-0-0-0-0--0-0-0-0--0-0-0-0--0-0-0-0-|-0-0-0-0--0-0-0-0--0-0-0-0--0-0-0-0-||


BRIDGE PART 1

play twice

---------------------|-----------------------|
---------------------|-----------------------|
---------------------|-----------------------|
----------7-------9--|-----------------4--5--|
----------5-------7--|-----------5--4--2--3--|
-0-0-0-0-----0-0-----|--0-0-0-0--3--2--------|

---------------------|-----------------------|
---------------------|-----------------------|
---------------------|-----------------------|
----------7-------9--|-----------5--4--------|
----------5-------7--|-----------3--2--4--5--|
-0-0-0-0-----0-0-----|--0-0-0-0--------2--3--|


CONNECTING MEASURES

play this between bridge part 1 and bridge part 2

-------|
-------|
-------|
---2---|
---2---|
---0---|

BRIDGE PART 2

play 4 times

---------------------|--------------|
---------------------|--------------|
---------------------|--------------|
------5-4------------|--------------|
------3-2-----4-5----|-5-4-----3--3-|
-0-0-------0--2-3--0-|-3-2--0--1--1-|

---------------------|--------------||
---------------------|--------------||
---------------------|--------------||
------5-4------------|---------3--3-||
------3-2-----4-5----|-5-4-----1--1-||
-0-0-------0--2-3--0-|-3-2--0-------||

BRIDGE PART 3

-0-0-------0--2-3--0-|-3-2--0--1--1-|
---------------------|--------------|--------||
---------------------|--------------|--------||
---------------------|--------------|--------||
------5-4------------|--------------|--------||
------3-2-----4-5----|-5-4-----3--3-|--2---2-||
-0-0-------0--2-3--0-|-3-2--0--1--1-|--0---0-||


play prechorus 5 times
play chorus 5 times
play prechorus 5 times
play chorus 4 times
play prechorus 4 times
play chorus 4 times
play postchorus
Comments