Sodom - Agent Orange Chords & Tabs

 

Agent Orange Chords & Tabs

Sodom Chords & Tabs

Version: 1 Type: Tab 0 ratings
1 star 2 stars 3 stars 4 stars 5 stars
comments

Agent Orange Tab

   
                           "Agent Orange" BY Sodom 
                           FROM THE "Agent Orange" CD 
                            

Transcribed by Volker Hilsheimer 
eMail: vohi@informatik.uni-rostock.de 

Version 1.0 Feb'98 

------------------------------------------------------------------------------ 

Tuning:   one step down (1:D, 2:A, 3:F, 4:C, 5:G, 6:D) 

Timing:   spaces between Notes indicate length 

Notation: When no guitars are listed play all guitars simultaneously. 

          |:---:|= part to repeat 
          ~ = vibrato 
          . = palm mute (down) 
          " = tremolo picking (up and down) 
          \ = slide down 

------------------------------------------------------------------------------ 

Riff A 
|-\-------------------------------------------------------------:|4x 
|-\-------------------------------------------------------------:| 
|-\-------------------------------------------------------------:| 
|-\-------------------------------------------------------------:| 
|-\-0---2---3-----2-------2-3-----0---2---3-----2-------2-1-3-2-:| 
|-\-0-0-2-2-3-3-3-2-2-2-2-----3---0-0-2-2-3-3-3-2-2-2-2---------:| 
      .   .   . .   . . .           .   .   . .   . . . 

Riff B1 (with flanger) 
|---------------------------------:|3x 
|---------------------------------:| 
|---------------------------------:| 
|-7-------3-------5-------3-------:| 
|-5-------3-------5-------3-------:| 
|---0-0-0---0-0-0---0-0-0---0-0-0-:| 
    . . .   . . .   . . .   . . . 
                                                                    ________ 
Riff B2                                                             | 2 
|-------------------------------------------------------------------:|--------| 
|-------------------------------------------------------------------:|--------| 
|-------------------------------------------------------------------:|--------| 
|-4-------4-------5-------5-----------------------------------------:|-2------| 
|-2-2-2-2-2-2-2-2-3-3-3-3-3-3-3-0-4-------4-------\4-------\4-------:|-2------| 
|---------------------------------2-2-2-2-2-2-2-2-\2-2-2-2-\2-2-2-2-:|-0------| 
    . . .   . . .   . . .   . .     . . .   . . .    . . .   . . . 

Riff C (fade in) 
|-------------------------------------------------------- 
|-------------------------------------------------------- 
|-------------------------------------------------------- 
|-----------------------------------------------------4-- 
|---------------------------32------------------------2-4 
|-00000000000000000000000032--000000000000000000000000--2 
  """"""""""""""""""""""""    """""""""""""""""""""""" 
[ Tab from: http://www.guitartabs.cc/tabs/s/sodom/agent_orange_tab.html ]
 -------------------------------------------------------------:|4x 
 -------------------------------------------------------------:| 
 -------------------------------------------------------------:| 
 -------------------------------------------------------------:| 
 ---------------------------32------------------------3\2-1-3-:| 
 -00000000000000000000000032--0000000000000000000000003\2-1-3-:| 
  """"""""""""""""""""""""    """""""""""""""""""""""" 

Riff D1 
|---------------------------------:| 
|---------------------------------:| 
|---------------------------------:| 
|---------------------------------:| 
|----------------3322222222222222-:| 
|-001111111111111-----------------:| 
  """"""""""""""""""""""""""""""" 

Riff D2 
|---------------------------------:|-------------| 
|---------------------------------:|-------------| 
|---------------------------------:|-------------| 
|----------------5-4--------------:|-------------| 
|-2-3------------3-2--------------:|-2/3---0-3-3-| 
|-0-1-----------------------------:|-2/3---0-3-3-| 
                                           . 

play Riff C, D1/D2 


Interlude 
|------:|8x |-------------------------------------------:|4x |------:|8x 
|------:|   |-------------------------------------------:|   |------:| 
|------:|   |-------------------------------------------:|   |------:| 
|------:|   |-10-9--8-7---------------------------------:|   |------:| 
|------:|   |------------10--7----------10-9--8-7-10--7-:|   |------:| 
|-0000-:|   |------------10--7-000-0000-----------10--7-:|   |-0000-:| 
  ....                         ... ....                        .... 

|-------------------------------------------------------------------:|2x 
|-------------------------------------------------------------------:| 
|-------------------------------------------------------------------:| 
|-9---------------8---------------5---------------4-----------------:| 
|-7---------------6---------------3---------------2-----------------:| 
|-------------------------------------------------------------------:| 

|---------------------------------- 
|---------------------------------- 
|---------------------------------- 
|-9---9---9---9---8---8---8---8---- 
|-77777777777777776666666666666666- 
|---------------------------------- 
   """ """ """ """ """ """ """ """                                __________ __________ __________ 
                               |1,3       |2         |4 
-----------------------------------------:|----------|---------------------| 
-----------------------------------------:|----------|---------------------| 
-----------------------------------------:|----------|---------------------| 
5---5---5---5---4---4---4---4------------:|----------|---------------------| 
33333333333333332222222222222222----2~---:|-2~--6~---|-2-3-2-------------2-| 
--------------------------------2~-------:|----------|-------3-2-0-2-3-2-0-| 
 """ """ """ """ """ """ """ """ 

play Riff C (with Solo), D1/D2 (with rising 2nd Guitar), C, D1/D2 for questions, comments, corrections, or newest version please email Rich at 
rich@dsrmusic.com
Comments