Soda Stereo - Un Millon De Anos Luz Chords & Tabs

 

Un Millon De Anos Luz Chords & Tabs

Soda Stereo Chords & Tabs

Version: 1 Type: Tab 0 ratings
1 star 2 stars 3 stars 4 stars 5 stars
comments

Un Millon De Anos Luz Tab

   
Un millon de a?os luz
SODA sTEREO

este es el solo que toca en varias partes de la cancion
al final de la cancion hace el mismo solo con algunas variaciones.
ojala les guste

  B    Bm   E-Bm-E-Bm B    Bm E
1-2-2--22--000202----2-2--22--0-|
2-4-4--33--000303----4-4--33--0-|
3-4-4--44--000404----4-4--44--0-|
4-4-4--44--111414----4-4--44--1-|
5-2-2--22--222222----2-2--22--2-|
6-2-2--22--222222----2-2--22--2-|

1--0h11h12h14-14-I-14-16-12-12-12-I-12-11h12h14-11~~--|
2----------------I----------------I-------------------|
3----------------I----------------I-------------------|
4----------------I----------------I-------------------|
5----------------I----------------I-------------------|
6----------------I----------------I-------------------|

1--17-17-14/14-17-17-14/14-17-17-14/14/14/12-|
2--------------------------------------------|
3--------------------------------------------|
4--------------------------------------------|
5--------------------------------------------|
6--------------------------------------------|
[ Tab from: http://www.guitartabs.cc/tabs/s/soda_stereo/un_millon_de_anos_luz_tab.html ]
1-11/12/14-12-11-11s9-9s7-7-I-12-11p9--I---12-11h9---|
2---------------------------I-------10-I-10-------10-|
3---------------------------I----------I-------------|
4---------------------------I----------I-------------|
5---------------------------I----------I-------------|
6---------------------------I----------I-------------|

1-9------11-11-----9-9----9--------9--------9----|
2---12-12-----10-10---1010-12~-1010-12~-1010-12~-|
3------------------------------------------------|
4------------------------------------------------|
5------------------------------------------------|
6------------------------------------------------|

1---------------------|
2-10/10/10/9-9h10p7-5-|
3---------------------|
4---------------------|
5---------------------|
6---------------------|

Simbolog?a:
la 'h' y las lineas diagonales significan que se tocan muy rapido.

la 's' significa deslizar de 'x' traste a 'y' traste
la 'p' significa pul off( mas o menos igual que la 'h')
las 'I' las puse como divisi?n entre diferentes partes del solo,
si se les hace muy dificil, vayan tocando parte por parte oyendo el cd

cualquier sugerencia o duda escribanme a sergiosilvah@hotmail.com y yo les respondo.

SoDa StErEo!!!!
Comments