Soda Stereo - Musica Ligera Chords & Tabs

 

Musica Ligera Chords & Tabs

Soda Stereo Chords & Tabs

Version: 2 Type: Tab 0 ratings
1 star 2 stars 3 stars 4 stars 5 stars
comments

Musica Ligera Tab

|--7--5--7---5---7---5----------------------------7s12----12---10--9---10---12----10--9---7---9--|
|------------------------------7---5---7---5---7-------------------------------------------------|
|------------------------------------------------------------------------------------------------|
|------------------------------------------------------------------------------------------------|
|------------------------------------------------------------------------------------------------|
|------------------------------------------------------------------------------------------------|
[ Tab from: http://www.guitartabs.cc/tabs/s/soda_stereo/musica_ligera_tab_ver_2.html ]
|----------------------------------------------------------------------------------------------------|
|-1010s12------10h12---10h12-------------------------------10h12---10h12----------------------------|
|---------------------------------------------10h12-------10h12-------------------------10h12-10h12--|
|----------------------------------------------------------------------------------------------------|
|----------------------------------------------------------------------------------------------------|
|----------------------------------------------------------------------------------------------------|

|--14---12---14--12--14--15--14--12--12--14--15-14--12--10--9--10--12--10--9--|
|-----------------------------------------------------------------------------|
|-----------------------------------------------------------------------------|
|-----------------------------------------------------------------------------|
|-----------------------------------------------------------------------------|
|-----------------------------------------------------------------------------|

You can like improvise a little bit in 9th, 7th, 5th frets in second string and that's it...
Comments