Soda Stereo - Musica Ligera Chords & Tabs

 

Musica Ligera Chords & Tabs

Soda Stereo Chords & Tabs

Version: 1 Type: Tab 0 ratings
1 star 2 stars 3 stars 4 stars 5 stars
comments

Musica Ligera Tab

Intro: Palm muted
E--------------------------------------
B--------------------------------------
G--------------------------------------
D--4-4-4-4-----------7-7-7-7-----------
A--2-2-2-2--5-5-5-5--5-5-5-5--7-7-7-7--
E-----------3-3-3-3-----------5-5-5-5--

Ella durmió...........


Nada más queda.....
E---3---2-2------2-2-----3--2-2--0-0-0---
B---3---3-3------3-3-----3--3-3--2-2-2---
G---0---2-2------4-4-----4--2-2--2-2-2---
D---0---0-0------4-4-----5--0-0--2-2-2---
A---2---0-0------2-2-5-5----0-0--0-0-0---
E---3---0-0----------3-3----0-0--0-0-0---

Primer solo / First solo:
E--------------------------------------------
B--------------------------------------------
G--------------------------------------------
D--------------------------------------------
A-2-2-4-5---4-5-4-2-2-0-----2--0h2-2---2-0---
E-----------------------2-0----------2-----2-

E-----------------------------------
B-----------------------------------
G-----------------------------------
D-----------2-4-2-------------------
A-2-2-4-5---------5-4-2-------------
E-----------------------2---2-/-14--

versos

No le enviare..............
E--2-2------3--2-2--0-0-0----2-2------3--2-2--0-0-0---
B--3-3------3--3-3--2-2-2----3-3------3--3-3--2-2-2---
G--4-4------4--2-2--2-2-2----4-4------4--2-2--2-2-2---
D--4-4------5--0-0--2-2-2----4-4------5--0-0--2-2-2---
A--2-2--5-5---------0-0-0----2-2--5-5---------0-0-0---
E-------3-3-----------------------3-3-----------------

Y aquel amor de musica ligera..........
E--2-2------3--2-2--0-0-0----2-2------3--2-2--0-0-0---
B--3-3------3--3-3--2-2-2----3-3------3--3-3--2-2-2---
G--4-4------4--2-2--2-2-2----4-4------4--2-2--2-2-2---
D--4-4------5--0-0--2-2-2----4-4------5--0-0--2-2-2---
A--2-2--5-5---------0-0-0----2-2--5-5---------0-0-0---
E-------3-3-----------------------3-3-----------------

Segundo solo / Second solo:(chorus, flanger, delay)
E---------------------------------5h7p5---5-7-/-12-10-9-10-12-10-9-7-
B--/12-10--12-10--12-10-/-7--5-7--------5----------------------------
G--------------------------------------------------------------------
D--------------------------------------------------------------------
A--------------------------------------------------------------------
E--------------------------------------------------------------------
[ Tab from: http://www.guitartabs.cc/tabs/s/soda_stereo/musica_ligera_tab.html ]
E-9-7-5---7p5p0--9p7p0--5p7p0--10p9p0--7p5p0--9p7p0--5p7p0--10p9p0---
B--------------------------------------------------------------------
G--------------------------------------------------------------------
D--------------------------------------------------------------------
A--------------------------------------------------------------------
E--------------------------------------------------------------------

E--/-14--12-14--12-14-15-14-12---12-14-15-14-12-10---9-10-12-10---9-7-5-
B-----------------------------------------------------------------------
G-----------------------------------------------------------------------
D-----------------------------------------------------------------------
A-----------------------------------------------------------------------
E-----------------------------------------------------------------------

E--7p5p0--9p7p0-7p5p0--10p9p0--7p5p0--9p7p0--7p5p0--10p9p0------
B---------------------------------------------------------------
G---------------------------------------------------------------
D---------------------------------------------------------------
A---------------------------------------------------------------
E---------------------------------------------------------------

Y aquel amor de musica ligera..........
E--2-2------3--2-2--0-0-0----2-2------3--2-2--0-0-0---
B--3-3------3--3-3--2-2-2----3-3------3--3-3--2-2-2---
G--4-4------4--2-2--2-2-2----4-4------4--2-2--2-2-2---
D--4-4------5--0-0--2-2-2----4-4------5--0-0--2-2-2---
A--2-2--5-5---------0-0-0----2-2--5-5---------0-0-0---
E-------3-3-----------------------3-3-----------------

E--7-7-7-7-7-7-7-10-10-10-10-5-5-5-5-5-7-7-7-7-7-7-7-10-10-10-10-5-5-5-5-5--
B--7-7-8-8-8-8-8-10-10-10-10-5-5-5-5-5-7-7-8-8-8-8-8-10-10-10-10-5-5-5-5-5--
G--7-7-7-7-7-7-7-11-11-11-11-6-6-6-6-6-7-7-7-7-7-7-7-11-11-11-11-6-6-6-6-6--
D---------------------------------------------------------------------------
A---------------------------------------------------------------------------
E---------------------------------------------------------------------------

Nada mas queda..........
E--2-2------3--2-2--0-0-0----2-2------3--2-2--0-0-0---
B--3-3------3--3-3--2-2-2----3-3------3--3-3--2-2-2---
G--4-4------4--2-2--2-2-2----4-4------4--2-2--2-2-2---
D--4-4------5--0-0--2-2-2----4-4------5--0-0--2-2-2---
A--2-2--5-5---------0-0-0----2-2--5-5---------0-0-0---
E-------3-3-----------------------3-3-----------------
Comments