Soda Stereo - Entre Canibales Chords & Tabs

 

Entre Canibales Chords & Tabs

Soda Stereo Chords & Tabs

Version: 1 Type: Bass Tab 0 ratings
1 star 2 stars 3 stars 4 stars 5 stars
comments

Entre Canibales Bass Tab

   
Entre Caníbales - Soda Stereo

Introducción:

G|---------|---------|
D|-2-------|-0-------|
A|---0-2-3-|-------0-|
E|---------|---2-3---| x4

   C   D   C   D   C   D   C   D
G|---|---|---|---|---|---|---|---|
D|---|-0-|---|-0-|---|-0-|---|-0-|
A|-3-|---|-3-|---|-3-|---|-3-|---|
E|---|---|---|---|---|---|---|---|

-----------------------------------------
Canto: IGUAL A LA INTRODUCCIÓN
-----------------------------------------
Pre-estribillo:
[ Tab from: http://www.guitartabs.cc/tabs/s/soda_stereo/entre_canibales_btab.html ]
     D7           E7
G|--------|-----------------|
D|--------|-----------------|
A|-5--5-5-|-7-7-7-7-7-7-7-7-|
E|--------|-----------------|
        x4                x2
-----------------------------------------
Estribillo:

G|---------|---------|
D|-2-------|-0-------|
A|---0-2-3-|-------0-|
E|---------|---2-3---| x7

G|---------|
D|-2-------|
A|---0-2-3-|
E|---------|
-----------------------------------------
Puente:

   C   D   C   D   C   D   C   D
G|---|---|---|---|---|---|---|---|
D|---|-0-|---|-0-|---|-0-|---|-0-|
A|-3-|---|-3-|---|-3-|---|-3-|---|
E|---|---|---|---|---|---|---|---|
-----------------------------------------
Bis Canto, Pre-estribillo y Estribillo
-----------------------------------------
Comments