Soda Stereo - Cuando Pase El Temblor Chords & Tabs

 

Cuando Pase El Temblor Chords & Tabs

Soda Stereo Chords & Tabs

Version: 2 Type: Tab

Cuando Pase El Temblor Tab

   
Banda: Soda Stereo
Cancion: Cuando Pase el Temblor
transcrito por:Carlos Ramirez
Afinacion: EADGBe

en esta transcripcion, hay algunos acordes que no he visto en los otros
tabs, que considero Gustavo los toca....

INTRO:
    Am   Gadd9  F  Em
e|---5-----5----5---7-----------|
B|---5-----3----6---8-----------|
G|---5-----4----5---9-----------| 2 veces
D|---7-----5----7---9-----------|
A|------------------------------|
E|------------------------------|


VERSO:
      Am  Gadd9                F         Em                C   Csus
e|-----5----5------------------5----------7----------------8----8---|
B|-----5----3------------------6----------8----------------8----8---|
G|-----5----4------------------5----------9----------------9---10---|
D|-----7----5------------------7----------9---------------10---10---|
A|------------------------------------------------------------------|
E|------------------------------------------------------------------|
       yo   caminare entre las piedras hasta sentir el temblor
    estoy sentado en un crater desierto sigo aguardando el temblor

               C  Gm            C7                Gm
e|-------------8---3--------------3-----------------3---------------|
B|-------------8---3--------------5-----------------3---------------|
G|-------------9---3--------------3-----------------3---------------|
D|------------10---5--------------5-----------------5---------------|
A|------------------------------------------------------------------|
E|------------------------------------------------------------------|
   en mis piernas      a veces tengo temor     lo se
   en mi cuerpo         nadie me vio partir    lo se
[ Tab from: http://www.guitartabs.cc/tabs/s/soda_stereo/cuando_pase_el_temblor_tab_ver_2.html ]
                D7         F   B7sus
e|---------------5---------5----2-----------------------------------|
B|---------------7---------6----5-----------------------------------|
G|---------------5---------5----2-----------------------------------|
D|---------------7---------7----4-----------------------------------|
A|------------------------------------------------------------------|
E|------------------------------------------------------------------|
    a veces verguenza oh  oh   oh
     nadie me espera  oh  oh   oh


CORO:
      Em           B7     Bo       Em         B7   Bo      Cmaj7
e|----7------10-----5------8--------7-----10---5----8-------7-------|
B|----8------10-----4------7--------8-----10---4----7-------8-------|
G|----9-------9-----4------8--------9------9---4----8-------9-------|
D|----9-------9-----4------7--------9------9---4----7------10-------|
A|------------------------------------------------------------------|
E|------------------------------------------------------------------|
     hay una grieta    en mi corazon un planeta  con desilusion

           Bm7       Cmaj7      Bm7   F
e|--10\12---7---------7--10\12--7-----8---------0---8---|
B|----------7--10\12--8---------7----10---------0--10---|
G|----------7---------9---------7---------------2-------|
D|----------7--------10---------7---------------3-------|
A|----------------------------------------------3-------|
E|----------------------------------------------1-------|

  verso, coro..


       Am   Gadd9               F   Em                   C
e|------5----5------------------5----7-------------------8-10--8----|
B|------5----3------------------6----8-------------------8--8--8----|
G|------5----4------------------5----9-------------------9--9--9----|
D|------7----5------------------7----9------------------10-10-10----|
A|------------------------------------------------------------------|
E|------------------------------------------------------------------|
              oh oh oh   oh oh oh  oh oh oh oh el temblor

    C         Dm           Bb       C
e|--8-10--8---12-----------6--------8-10--8------|
B|--8--8--8---10-----------6--------8--8--8------|
G|--9--9--9---10-----------7--------9--9--9------| (repetir)
D|-10-10-10---12-----------8-------10-10-10------|
A|-----------------------------------------------|
E|-----------------------------------------------|
  despierta- me  cuando pase el temblor .....


Obs: en el resto de la cancion Gustavo cambia el Gm por Gm7
que basicamente es parecido
  Gm7
e|--3--
B|--6--
G|--3--
D|--5--
A|-----
E|-----