Soda Stereo - Cuando Pase El Temblor Chords & Tabs

 

Cuando Pase El Temblor Chords & Tabs

Soda Stereo Chords & Tabs

Version: 1 Type: Bass Tab 0 ratings
1 star 2 stars 3 stars 4 stars 5 stars
comments

Cuando Pase El Temblor Bass Tab

   
Cuando Pase El Temblor - Soda Stereo

       Am      G9           F            Em
G|------------|------------|------------|------------|
D|575---------|------------|------------|2-----------|
A|---7--------|------------|------------|------------|
E|-----5-5-5-5|3--3--3--3--|1--1--1--1--|---0--0--0--|

  Yo, caminare...
  Am           G9           F            Em
G|------------|------------|------------|------------|
D|------------|------------|------------|x--2--x--2--|
A|------------|------------|------------|------------|
E|5--5--5--5--|x--3--x--3--|x--1--1--1--|------------|

  C            Csus4        Gm           C7 
G|------------|------------|------------|------------|
D|--2---------|----2-------|------------|------------|
A|3---3-3--3--|2-3---33-3-3|------5-----|3--3--3--3--|
E|------------|------------|3--6-----6--|------------|

  Gm           D            F            B7sus4
G|------------|------------|------------|------------|
D|------------|------------|3----3------|------------|
A|------5-----|5--5--5--5--|------------|2--2--2--2--|
E|3--6-----6--|------------|------------|------------|

  Estoy, sentado.... / Sé, que te encontrare...
  Am           G9           F            Em
G|------------|------------|------------|------------|
D|------------|------------|------------|x--2--------|
A|------------|------------|------------|------------|
E|5--5--5--5--|x--3--3--3--|x--1--1--1--|------0--0--|
[ Tab from: http://www.guitartabs.cc/tabs/s/soda_stereo/cuando_pase_el_temblor_btab.html ]
  C            Csus4        Gm           C7
G|------------|------------|------------|------------|
D|--2---------|----2-------|------------|------------|
A|3---3-3--3--|2-3---33-3--|------5-----|3--3--3--3--|
E|------------|------------|3--6-----6--|------------|

  Gm           D            F            B7sus4
G|------------|------------|------------|------------|
D|------------|------------|3----3------|------------|
A|------5-----|5--5--5--5--|------------|2----2------|
E|3--6-----6--|------------|------------|------------|

  Hay, una grieta..
  Em           B7           Em           B7
G|------------|------------|------------|------------|
D|2--2--2--2--|------------|2--2--2--2--|------------|
A|------------|2--2--2--2--|------------|2--2--2--2--|
E|------------|------------|------------|------------|

  Am7/9  D6    Am7/9  D6    Fmaj7/11
G|------------|------------|------------||
D|------------|------------|------------||
A|3------3----|3------3----|------------||
E|------------|------------|1----1------||

  Oh,oh oh oh oh....
  Am           G9           F            Em
G|------------|------------|------------|------------|
D|------------|------------|------------|2-----------|
A|------------|------------|------------|------------|
E|5--5--5--5--|3--3--3--3--|1--1--1--1--|---0--0--0--|

  El temblor...             Despiertame...
  C            D            C            D  
G|------------|------------|------------|------------|
D|------------|------------|------------|------------|
A|3-3-3-3-----|5-5-5-5-----|3-3-3-3-----|5-5-5-5-----|
E|--------3-3-|--------5-5-|--------3-3-|--------5-5-|
                           *         4  veces        *    
Comments