Sod - United Forces Chords & Tabs

 

United Forces Chords & Tabs

Sod Chords & Tabs

Version: 1 Type: Tab 0 ratings
1 star 2 stars 3 stars 4 stars 5 stars
comments

United Forces Tab

                        S.O.D. - UNITED FORCES 
                  From the Album - SPEAK ENGLISH OR DIE 
                    Copyright: MEGAFORCE RECORDS 1985 
                      Version 1.0 - Febuary, 2002 

Transcribed By: John McNeal (Souls of Black) 

For Questions, Comments, Newest Version, Corrections or Request;
Contact Souls of Black: at Lynching@aol.com 


I'll try the solo later.

Riff 1
|--------------------------------------------------|
|--------------------------------------------------|
|--------------------------------------------------|
|-2-2-5-4-3--2-2-5-4-3--2-2-5-4-3--7-7-7-7-8-8-8-8-|
|-2-2-5-4-3--2-2-5-4-3--2-2-5-4-3--7-7-7-7-8-8-8-8-|
|-0-0-3-2-1--0-0-3-2-1--0-0-3-2-1--5-5-5-5-6-6-6-6-|
[ Tab from: http://www.guitartabs.cc/tabs/s/sod/united_forces_tab.html ]
Riff 2
|--------------------|
|--------------------|
|--------------------|
|--------------------|
|-22222222222222-5\2-|
|-00000000000000-3\0-|
  ..............

Riff 3
|-----------------|-----------------|
|-----------------|-----------------|
|-----------------|-----------------|
|--------x3 then--|-7-7-7-7-8-8-8-8-|
|-----------------|-7-7-7-7-8-8-8-8-|
|-0-2-3-0-7-6-5-3-|-5-5-5-5-6-6-6-6-|
  . . . . . . . .

Riff 4
|-----------------|
|-----------------|
|-----------------|
|-2---------------|
|-2---------------|
|-0---------------|

Riff 5 (also solo rhythm)
|----------------------------------------------|
|----------------------------------------------|
|----------------------------------------------|
|----------------------------------------------|
|-2-----5-4-3-2-----5-4-3-2-----5-4-3----------|
|-00000-3-2-1-00000-3-2-1-00000-3-2-1-55556666-|
   ....        ....        ....       ........

Riff 1 x 2
Riff 2 x 1
Riff 3 x 2
Riff 1 x 2
Riff 2 x 1
Riff 3 x 2
Riff 1 x 2
Riff 4 x 1
Riff 5 x 8
Riff 4 x 1
Comments