Sod - Noise Thats What Chords & Tabs

 

Noise Thats What Chords & Tabs

Sod Chords & Tabs

Version: 2 Type: Tab 0 ratings
1 star 2 stars 3 stars 4 stars 5 stars
comments

Noise Thats What Tab

   
noise that's what (instrumental)

by S.O.D.
from the album 'bigger than the devil'

transcribed by Christian Reindel (creindel@gmx.de)
any questions or corrections-e-mail me

tune down 1/2 step
[ Tab from: http://www.guitartabs.cc/tabs/s/sod/noise_thats_what_tab_ver_2.html ]
Intro
     palm mute on E
Eb:|-----------------------------------------------------------|
Bb:|-----------------------------------------------------------|
Gb:|-----------------------------------------------------------|
Db:|-----------------------------------------------------------|
Ab:|-X-X-X-X-X-X-X-X-X-X-X-X-X-X-X-X-X-X-X-X-X-X-X-X-X-X-X-X-X-|
Eb:|-X-X-X-X-X-X-X-X-X-X-X-X-X-X-X-X-X-X-X-X-X-X-X-X-X-X-X-X-X-|
 
 
   Riff 1 - 6 times
Eb:|----------------------------------------------------------|
Bb:|----------------------------------------------------------|
Gb:|----------------------------------------------------------|
Db:|----------------------------------------------------------|
Ab:|-2--3--2--2--7---------7--8------2--3--2--2--7---------8--|
Eb:|-0--1--0--0--5--0-0-0--5--6------0--1--0--0--5--0-0-0--6--|
 
     palm mute on E                        increase the tempo
Eb:|-----------------------------------------------------------|
Bb:|-----------------------------------------------------------|
Gb:|-----------------------------------------------------------|
Db:|-----------------------------------------------------------|
Ab:|-X-X-X-X-X-X-X-X-X-X-X-X-X-X-X-X-X-X-X-X-X-X-X-X-X-X-X-X-X-|
Eb:|-X-X-X-X-X-X-X-X-X-X-X-X-X-X-X-X-X-X-X-X-X-X-X-X-X-X-X-X-X-|

Riff 2 - 4 times
Eb:|---------------------------------------------------------|
Bb:|---------------------------------------------------------|
Gb:|---------------------------------------------------------|
Db:|---------------------------------------------------------|
Ab:|-8--7--2--2--3---------2--3-----8--7--2--2--3---------2--|
Eb:|-6--5--0--0--1--0-0-0--0--1-----6--5--0--0--1--0-0-0--0--|

end.
Comments