Sod - Milk Chords & Tabs

 

Milk Chords & Tabs

Sod Chords & Tabs

Version: 1 Type: Tab 0 ratings
1 star 2 stars 3 stars 4 stars 5 stars
comments

Milk Tab

                             S.O.D. - MILK
                  From the Album - SPEAK ENGLISH OR DIE 
                    Copyright: MEGAFORCE RECORDS 1985 
                      Version 1.0 - Febuary, 2002 

Transcribed By: John McNeal (Souls of Black) 

For Questions, Comments, Newest Version, Corrections or Request;
Contact Souls of Black: at Lynching@aol.com 

I'm not sure about the ending to Riff 3, 
email me if you know it.

Bass Intro Riff
|-------------------------------------|
|-------------------------------------|
|-------------------------------------|
|-2-3-2---0-2-3-2---2-3-2---0-2-3-5-3-|


Riff 1 (played with Bass intro after it is played twice)
|-------------------------------------|
|-------------------------------------|
|-------------------------------------|
|-4-5-4---2-4-5-4---4-5-4---2-4-5-7-5-|
|-4-5-4---2-4-5-4---4-5-4---2-4-5-7-5-|
|-2-3-2---0-2-3-2---2-3-2---0-2-3-5-3-|

[ Tab from: http://www.guitartabs.cc/tabs/s/sod/milk_tab.html ]
Riff 2 
|-------------------------------------------|
|-------------------------------------------|
|-------------------------------------------|
|-4-5-4-----2-4-5-4-----4-5-4-----2-4-5-7-5-|
|-4-5-4-----2-4-5-4-----4-5-4-----2-4-5-7-5-|
|-2-3-2-000-0-2-3-2-000-2-3-2-000-0-2-3-5-3-|
        ...         ...       ...

Riff 3 
|---------------------------------------|
|---------------------------------------|
|-4-5-4-----7-5-4-----4-5-4-----7-5-2-4-|
|-4-5-4-----7-5-4-----4-5-4-----7-5-2-4-|
|-2-3-2-222-5-3-2-222-2-3-2-222-5-3-0-2-|
|---------------------------------------|
        ...       ...       ...

Riff 4 
|-------------------------|
|-------------------------|
|-9-10-12-10-9-7-10101010-|
|-9-10-12-10-9-7-10101010-|
|-7--8-10--8-7-5--8-8-8-8-|
|-------------------------|

Riff 5
|---------------------------------------------|
|---------------------------------------------|
|---------------------------------------------|
|-4-5-4-----2-4-5-4-----4-5-4-----2-4-5-7-5-4-|
|-4-5-4-----2-4-5-4-----4-5-4-----2-4-5-7-5-4-|
|-2-3-2-000-0-2-3-2-000-2-3-2-000-0-2-3-5-3-2-|
        ...         ...       ...

(Intro)
Bass Intro x 4
Riff 1 x 2
(Verse 1)
Riff 2 x 4
(Chorus 1)
Riff 3 x 2
(Verse 2)
Riff 4 x 6
Riff 2 x 2
(Chorus 2)
Riff 3 x 2
(Verse 3)
Riff 4 x 6
(Chorus/Outro)
Riff 2 x 1
Riff 5 x 1
Comments