Sod - March Of The Sod Chords & Tabs

 

March Of The Sod Chords & Tabs

Sod Chords & Tabs

Version: 1 Type: Tab 0 ratings
1 star 2 stars 3 stars 4 stars 5 stars
comments

March Of The Sod Tab

   
Seems that over the last few months, people have been asking for it..
It's the first song that I ever learned to play, it's very simple,
but it's such a killer song. If you've ever heard the song, I'm sure
you know the timing. This is my first tab, so go easy on me.

tabbed by sod213@hotmail.com

S.O.D. - March of the S.O.D.

Downtune to your heart's content, I like this song brutal. I usually go to B, 
and play on 56-13's. 



Riff A
--------------------------------------------------------
--------------------------------------------------------
--------------------------------------------------------
--------------------------------------------------------
-3--2-------5--4--------3--2-------5--4-----------------
-1--0--0-0--3--2---0-0--1--0--0-0--3--2---0-0-----------
       pm          pm         pm          pm

Riff B
[ Tab from: http://www.guitartabs.cc/tabs/s/sod/march_of_the_sod_tab.html ]
--------------------------------------------------------
--------------------------------------------------------
--------------------------------------------------------
--------------------------------------------------------
-4--5--8--7------10-9-8-7---4--5--8--7------10-9-8-7----
-2--3--6--5--0-0--8-7-6-5---2--3--6--5--0-0--8-7-6-5----
             pm                         pm

Riff C

--------------------------------------------------------
--------------------------------------------------------
--------------------------------------------------------
--------------------------------------------------------
--------------------------------------------------------
-8--7--6--5---7--6--5--4---6--5--4--3---5--4--3--2------
pm throughout first 3 times, open last time or:

Alternate Riff C for last run

--------------------------------------------------------
--------------------------------------------------------
--------------------------------------------------------
--------------------------------------------------------
10--9--8--7---9--8--7--6---8--7--6--5---7--6--5--4------
-8--7--6--5---7--6--5--4---6--5--4--3---5--4--3--2------

Listen to the song for the structure, I think I've done my part.
I'm too busy watching the S.O.D. DVD. ;) Thanks to all that have
tabbed things up for the rest of us, we should all do our parts
and pay back what we've downloaded!
Comments