Sod - Evil Is In Chords & Tabs

 

Evil Is In Chords & Tabs

Sod Chords & Tabs

Version: 1 Type: Tab 0 ratings
1 star 2 stars 3 stars 4 stars 5 stars
comments

Evil Is In Tab

King at the king/Evil is in

by S.O.D.
from the album 'bigger than the devil'

transcribed by Christian Reindel (creindel@gmx.de)
any questions or corrections-e-mail me

tune down 1/2 step

Intro : The king order food at burger king....

  drums roll in ...

Riff 1 - play two times
Eb:|---------------------------------------------------------------|
Bb:|---------------------------------------------------------------|
Gb:|---------------------------------------------------------------|
Db:|---------------------------------------------------------------|
Ab:|-----------------------------------1p0------1p0------1p0-------|
Eb:|-1p0--0-0-0--1p0--0-0-0-1p0--0-0-0----0-0-0----0-0-0-----0-0-0-|
 
Eb:|---------------------------------------------------------------|
Bb:|---------------------------------------------------------------|
Gb:|---------------------------------------------------------------|
Db:|---------------------------------------------------------------|
Ab:|-----------------------------------2p0------2p0------2p0-------|
Eb:|-1p0--0-0-0--1p0--0-0-0-1p0--0-0-0----0-0-0----0-0-0-----0-0-0-|
[ Tab from: http://www.guitartabs.cc/tabs/s/sod/evil_is_in_tab.html ]
Eb:|---------------------------------------------------------------|
Bb:|---------------------------------------------------------------|
Gb:|---------------------------------------------------------------|
Db:|---------------------------------------------------------------|
Ab:|-----------------------------------1p0------1p0------1p0-------|
Eb:|-1p0--0-0-0--1p0--0-0-0-1p0--0-0-0----0-0-0----0-0-0-----0-0-0-|
                                                         end riff 1
Eb:|---------------------------------------------------------------|
Bb:|---------------------------------------------------------------|
Gb:|---------------------------------------------------------------|
Db:|---------------------------------------------------------------|
Ab:|-----------------------------------3p0------3p0------3p0-------|
Eb:|-1p0--0-0-0--1p0--0-0-0-1p0--0-0-0----0-0-0----0-0-0-----0-0-0-|

 the tempo increase rapidly...

Verse 1: it's friday night the moon is full... 

Eb:|------------------------------------------|
Bb:|------------------------------------------|
Gb:|------------------------------------------|
Db:|-------------------333--------------------|
Ab:|-33333333333-22222------------------------|
Eb:|------------------------------------------|


Chorus : All praise satan-prince immortal...
Eb:|---------------------------------------------------|
Bb:|---------------------------------------------------|
Gb:|---------------------------------------------------|
Db:|-66666-5555-222------------------------------------|
Ab:|---------------------------------------------------|
Eb:|---------------------------------------------------|

interlude: the wolves are singing now ....
Eb:|---------------------------------------------------|
Bb:|---------------------------------------------------|
Gb:|---------------------------------------------------|
Db:|-66666666-8888-9999--------------------------------|
Ab:|--------------------66666666-3333-2222-------------|
Eb:|---------------------------------------------------|

end interlude 
Eb:|---------------|
Bb:|---------------|
Gb:|---------------|
Db:|--5--4---------|
Ab:|--3--2---------|
Eb:|---------------|

back to riff 1 ( 2 times)
verse 2
chorus 2

finish with that...
Eb:|---------------------------------|
Bb:|---------------------------------|
Gb:|---------------------------------|
Db:|---------------------------------|
Ab:|--2--2--2--2--2--2--2--2--2------|
Eb:|--0--0--0--0--0--0--0--0--0------|

end.
Comments