Sod - Douche Crew Chords & Tabs

 

Douche Crew Chords & Tabs

Sod Chords & Tabs

Version: 1 Type: Tab 0 ratings
1 star 2 stars 3 stars 4 stars 5 stars
comments

Douche Crew Tab

Band: S.O.D.
Song: "Douche Crew"
Album: Speak English Or Die!
Tabbed by: Nigel Krick
E-mail: chaos-deathcult@totaldeath.com

/-slide up
=-hold note

Riff 1
|-------------------|
|-------------------|
|-------------------|
|-22222222-33333333-|
|-22222222-33333333-|
|-00000000-11111111-|


Riff 2

|-------------|
|-------------|
|-------------|
|-44444444----|
|-44444444----|
|-22222222-0--|

Riff 3

|-------------------|
|-------------------|
|----------1010-99--|
|-999-1010-1010-99--|
|-999-1010-8-8--77--|
|-777-8-8-----------|

Riff 4

|------------------|
|------------------|
|------------------|
|----------10-9----|
|-9-9-9-10--8-7----|
|-7-7-7--8---------|

Riff 5
[ Tab from: http://www.guitartabs.cc/tabs/s/sod/douche_crew_tab.html ]
|------------------------|
|------------------------|
|------------------------|
|------10-9-12-11--------|
|-9-10--8-7-10--9-12-11--|
|-7--8------------10--9--|

Riff 6

|------------------|
|------------------|
|------------------|
|------------------|
|---------8-7------|
|-7-7-7-8----------|

Riff 7

|--------------------------|
|--------------------------|
|--------------------------|
|--------------------------|
|-----8-7-10-9-------------|
|-7-8----------10-9/2====--|


Riff 1 - 8x
Riff 2 - 4x
Riff 3 - 4x 
Riff 2 - 4x
Riff 3 - 4x 
Riff 2 - 4x
Riff 3 - 4x 
Riff 4 - 3x
Riff 5 - 1x
Riff 4 - 3x
Riff 5 - 1x
Riff 4 - 3x
Riff 5 - 1x
Riff 6 - 3x
Riff 7 - 1x
Riff 2 - 4x
Riff 3 - 4x
Comments