Sod - Black War Chords & Tabs

 

Black War Chords & Tabs

Sod Chords & Tabs

Version: 2 Type: Tab 0 ratings
1 star 2 stars 3 stars 4 stars 5 stars
comments

Black War Tab

black war

by S.O.D.
from the album 'bigger than the devil'

transcribed by Christian Reindel (creindel@gmx.de)
any questions or corrections-e-mail me

tune down 1/2 step

Intro                   
Eb:|-------------------------------------|
Bb:|-------------------------------------|
Gb:|-------------------------------------|
Db:|-------------------------------------|
Ab:|--6--3--6--8-------6--3--6--8--------|
Eb:|--4--1--4--6-------4--1--4--6--------|

 Riff 1 (3 times) Verse 1
Eb:|-------------------------------------------|
Bb:|-------------------------------------------|
Gb:|-------------------------------------------|
Db:|-------------------------------------------|
Ab:|-3333333333333333333333333333-6-3-6-8------|
Eb:|-1111111111111111111111111111-4-1-4-6------|

Eb:|-------------------------------------------|
Bb:|-------------------------------------------|
Gb:|-------------------------------------------|
Db:|-------------------------------------------|
Ab:|-3333333333333333333333333333--------------|
Eb:|-1111111111111111111111111111--------------|

 Chorus (4 times)
    black war   black  war  black  war I can't fucking wait...
Eb:|--------------------------------------------------------|--------------|
Bb:|--------------------------------------------------------|--------------|
Gb:|--------------------------------------------------------|--------------|
Db:|--------------------------------------------------------|--------------|
Ab:|-6-----3------6-----3-----6-----3-----------------------|--6--3--6--8--|
Eb:|-4-----1------4-----1-----4-----1----0----0----0---0----|--4--1--4--6--|

 Riff 1 (3 times) Verse 2
Eb:|-------------------------------------------|
Bb:|-------------------------------------------|
Gb:|-------------------------------------------|
Db:|-------------------------------------------|
Ab:|-3333333333333333333333333333-6-3-6-8------|
Eb:|-1111111111111111111111111111-4-1-4-6------|

Eb:|-------------------------------------------|
Bb:|-------------------------------------------|
Gb:|-------------------------------------------|
Db:|-------------------------------------------|
Ab:|-3333333333333333333333333333--------------|
Eb:|-1111111111111111111111111111--------------|

 Chorus (4 times)
    black war   black  war  black  war  I can't fucking wait...
Eb:|--------------------------------------------------------|
Bb:|--------------------------------------------------------|
Gb:|--------------------------------------------------------|
Db:|--------------------------------------------------------|
Ab:|-6-----3------6-----3-----6-----3-----------------------|
Eb:|-4-----1------4-----1-----4-----1----0----0----0---0----|

 


now slowlier
Eb:|---------------------------------|
Bb:|---------------------------------|
Gb:|---------------------------------|
Db:|---------------------------------|
Ab:|----2-(2)-------2-(2)-----2-(2)--|
Eb:|-00-0-(0)----00-0-(0)--00-0-(0)--|
[ Tab from: http://www.guitartabs.cc/tabs/s/sod/black_war_tab_ver_2.html ]
   Riff 2 (5 times)  hey hey hey
Eb:|--------------------------------------|
Bb:|--------------------------------------|
Gb:|--------------------------------------|
Db:|--------------------------------------|
Ab:|----2-2-2-2-2-2-2-2-2-2-2-2-2-2-2-2---|
Eb:|-00-0-0-0-0-0-0-0-0-0-0-0-0-0-0-0-0---|

    Riff 3
Eb:|-----------------------------------------------------|
Bb:|-----------------------------------------------------|
Gb:|-----------------------------------------------------|
Db:|-----------------------------------------------------|
Ab:|-3---3---3---3-------------3---3---3---3--2-2-2-2----|
Eb:|-1-0-1-0-1-0-1--0-0-0-0----1-0-1-0-1-0-1--0-0-0-0----|

                                    end Riff 3
Eb:|-------------------------------------------|
Bb:|-------------------------------------------|
Gb:|-------------------------------------------|
Db:|-------------------------------------------|
Ab:|-3---3---3---3-------------3---3---3---3---|
Eb:|-1-0-1-0-1-0-1--0-0-0-0----1-0-1-0-1-0-1---|

    hey hey hey    pollution ain't gonna go away
Eb:|------------------------------------------|
Bb:|------------------------------------------|
Gb:|------------------------------------------|
Db:|------------------------------------------|
Ab:|----2-(2)---------2-(2)------------2-(2)--|
Eb:|-00-0-(0)------00-0-(0)---------00-0-(0)--|


Riff 2 (1 time) 
     don't free willy I say kill him today
Eb:|--------------------------------------|
Bb:|--------------------------------------|
Gb:|--------------------------------------|
Db:|--------------------------------------|
Ab:|----2-2-2-2-2-2-2-2-2-2-2-2-2-2-2-2---|
Eb:|-00-0-0-0-0-0-0-0-0-0-0-0-0-0-0-0-0---|









    Riff 3 ahhhhhhhhhhhhhh
Eb:|-----------------------------------------------------|
Bb:|-----------------------------------------------------|
Gb:|-----------------------------------------------------|
Db:|-----------------------------------------------------|
Ab:|-3---3---3---3-------------3---3---3---3--2-2-2-2----|
Eb:|-1-0-1-0-1-0-1--0-0-0-0----1-0-1-0-1-0-1--0-0-0-0----|

                                    end Riff 3
Eb:|-------------------------------------------|
Bb:|-------------------------------------------|
Gb:|-------------------------------------------|
Db:|-------------------------------------------|
Ab:|-3---3---3---3-------------3---3---3---3---|
Eb:|-1-0-1-0-1-0-1--0-0-0-0----1-0-1-0-1-0-1---|


    hey hey hey   hey hey hey
Eb:|-----------------------------|
Bb:|-----------------------------|
Gb:|-----------------------------|
Db:|-----------------------------|
Ab:|----2-(2)---------2-(2)------|
Eb:|-00-0-(0)------00-0-(0)------|


   Riff 2 (2 times)  hey hey hey
Eb:|--------------------------------------|-----------|
Bb:|--------------------------------------|-----------|
Gb:|--------------------------------------|-----------|
Db:|--------------------------------------|-----------|
Ab:|----2-2-2-2-2-2-2-2-2-2-2-2-2-2-2-2---|----2-(2)--|
Eb:|-00-0-0-0-0-0-0-0-0-0-0-0-0-0-0-0-0---|-00-0-(0)--|

end.
Comments