Sod - Arent You Hungry Chords & Tabs

 

Arent You Hungry Chords & Tabs

Sod Chords & Tabs

Version: 2 Type: Tab 0 ratings
1 star 2 stars 3 stars 4 stars 5 stars
comments

Arent You Hungry Tab

Aren't you hungry ?

by S.O.D.
from the album 'bigger than the devil'

transcribed by Christian Reindel (creindel@gmx.de)
any questions or corrections-e-mail me

tune down 1/2 step

Intro (it's the same intro as Anthrax's 'imitation of life'- very cool)
    Riff 1                  3x
Eb:|---------------------------------------------------------------|
Bb:|---------------------------------------------------------------|
Gb:|-7-7--7-6-6-6--6-8-8-8-7-7-6^7^6-------------------------------|
Db:|-0-0--0-0-0-0--0-0-0-0-0-0--------7-7--7-5-5--5-8-8--8-7-7-7-7-|
Ab:|----------------------------------0-0--0-0-0--0-0-0--0-0-0-0-0-|
Eb:|---------------------------------------------------------------|
                            1x
Eb:|--------------------------------------------------------------|
Bb:|--------------------------------------------------------------|
Gb:|-7-7--7-6-6-6--6-8-8-8-7-7-6^7^6------------------------------|
Db:|-0-0--0-0-0-0--0-0-0-0-0-0-------7-7--7-5-5--5-8-8--8-7-(7)---|
Ab:|---------------------------------0-0--0-0-0--0-0-0--0-0-(0)---|
Eb:|--------------------------------------------------------------|

Riff 2 - 8 times
    sitting in my kitchen     stuffed from having ate...
Eb:|-------------------------------------------------------|
Bb:|-------------------------------------------------------|
Gb:|-------------------------------------------------------|
Db:|-------------------5-------------------------------3---|
Ab:|-4--4--5--2--4--4--3--5----4--4--5--2--4--4--X--X--1---|
Eb:|-2--2--3--0--2--2-----3----2--2--3--0--2--2--X--X------|

Eb:|------------------------------------------|
Bb:|------------------------------------------|
Gb:|------------------------------------------|
Db:|-(3)---3--3--3--3--3--3--3--3-------------|
Ab:|-(1)---1--1--1--1--1--1--1--1-------------|
Eb:|------------------------------------------|

now faster

  Riff 3 - 8 times
    usa for you okay, what ...    aren't you hungry ?
Eb:|----------------------------|---------------------|
Bb:|----------------------------|---------------------|
Gb:|----------------------------|---------------------|
Db:|-------4-5------------------|---------------------|
Ab:|--2222-------3333-2-5-------|-X---X-----X---X-----|
Eb:|----------------------------|-X---X-----X---X-----|

[ Tab from: http://www.guitartabs.cc/tabs/s/sod/arent_you_hungry_tab_ver_2.html ]
 
Riff 4  (4 times)   are you still hungry ?
Eb:|--------------------------------------------|
Bb:|--------------------------------------------|
Gb:|-10-9-8-9--9-9-9-9-10-9-8-12-/10-/-9-\10----|
Db:|--8-7-6-7--7-7-7-7--8-7-6-10-/-8-/-7-\-8----|
Ab:|--------------------------------------------|
Eb:|--------------------------------------------|

 Riff 5 (4 times) looking for a free buffet... 
Eb:|--------------------------------------------|
Bb:|--------------------------------------------|
Gb:|--------------------------------------------|
Db:|-10-9-8-9--9-9-9-9-10-9-8-12-/10-/-9-\10----|
Ab:|--8-7-6-7--7-7-7-7--8-7-6-10-/-8-/-7-\-8----|
Eb:|--------------------------------------------|

Riff 6  - 3 times
Eb:|-----------------------------------------|
Bb:|-----------------------------------------|
Gb:|-----------------------------------------|
Db:|-9-9-9-9-9-9-9-9-9-9-9-9-----------------|
Ab:|-7-7-7-7-7-7-7-7-7-7-7-7--8-7-6-7-8-7----|
Eb:|-----------------------------------------|
           1 time
Eb:|---------------------------|
Bb:|---------------------------|
Gb:|---------------------------|
Db:|-9-9-9-9-9-9-9-9-9-9-9-9---|
Ab:|-7-7-7-7-7-7-7-7-7-7-7-7---|
Eb:|---------------------------|

 Riff 5 (now slowlier - 8 times)
   I think of people staving do you think i care ? ...
Eb:|--------------------------------------------|
Bb:|--------------------------------------------|
Gb:|--------------------------------------------|
Db:|-10-9-8-9--9-9-9-9-10-9-8-12-/10-/-9-\10----|
Ab:|--8-7-6-7--7-7-7-7--8-7-6-10-/-8-/-7-\-8----|
Eb:|--------------------------------------------|

back to high speed

  Riff 3 - 6 times
    sitting in my kitchen...
Eb:|----------------------------|
Bb:|----------------------------|
Gb:|----------------------------|
Db:|-------4-5------------------|
Ab:|--2222-------3333-2-5-------|
Eb:|----------------------------|





 Riff 4  (4 times)   aren't you hungry ?
Eb:|--------------------------------------------|
Bb:|--------------------------------------------|
Gb:|-10-9-8-9--9-9-9-9-10-9-8-12-/10-/-9-\10----|
Db:|--8-7-6-7--7-7-7-7--8-7-6-10-/-8-/-7-\-8----|
Ab:|--------------------------------------------|
Eb:|--------------------------------------------|

     aren't you hungry ?
Eb:|--------------------------------------------|
Bb:|--------------------------------------------|
Gb:|--------------------------------------------|
Db:|--------------------------------------------|
Ab:|--4--4---5--5--5----------------------------|
Eb:|--2--2---3--3--3----------------------------|

Riff 2 - 4 times
Eb:|-------------------------------------------------------|
Bb:|-------------------------------------------------------|
Gb:|-------------------------------------------------------|
Db:|-------------------5-------------------------------3---|
Ab:|-4--4--5--2--4--4--3--5----4--4--5--2--4--4--X--X--1---|
Eb:|-2--2--3--0--2--2-----3----2--2--3--0--2--2--X--X------|

end.
Comments