Socialburn - Utopia Chords & Tabs

 

Utopia Chords & Tabs

Socialburn Chords & Tabs

Version: 1 Type: Tab

Utopia Tab

verse
e(-------------------------)
b(-------------------------)
g(----75----107---32----02-)
d(--7----77-----5----55----)
a(-------------------------)
E(-------------------------)
[ Tab from: http://www.guitartabs.cc/tabs/s/socialburn/utopia_tab.html ]
chorus
e(---------------------------------)
b(---------------------------------)
g(---------------------------------)
d(--777777778888888833333333545322-)
a(--777777778888888833333333545322-)
E(--555555556666666611111111323100-)

solo
e(------------------------------------)
b(------6---5---3---2-----------------)
g(--2/3---2---2---2---2-3-2-22h32-----)
d(--------------------------------3/5-)
a(------------------------------------)
E(------------------------------------)