Socialburn - One More Day Chords & Tabs

 

One More Day Chords & Tabs

Socialburn Chords & Tabs

Version: 1 Type: Tab 0 ratings
1 star 2 stars 3 stars 4 stars 5 stars
comments

One More Day Tab

-------------------------------------------------------------------------------
		Socialburn - One More Day
-------------------------------------------------------------------------------
Tabbed by:J.V
Email:hanginwitastaple@hotmail.com

Tuning:standard

Gtr.1
Intro/Verse(repeating)
e|-0---0-0---0-0-0---0-0-0---0-0-0-0--0-0---0-0-0---0-0-0---0-0-0-|
B|-0---0-0---0-0-0---0-0-0---0-0-0-2--2-2---2-2-2---2-2-2---2-2-2-|
G|-x---1-1---1-1-1---1-1-1---1-1-1-2--2-2---2-2-2---2-2-2---2-2-2-|
D|-2---2-2---2-2-2---2-2-2---2-2-2-2----2-------2-------2-------2-|
A|-2-----2-------2-------2-------2-0----0-------0-------0-------0-|
E|-0-----0-------0-------0-------0--------------------------------|
Gtr.2
e|-----------------------------------------------------------------------|
B|-----------------------------------------------------------------------|
G|------------------------------------------------------------8-h-9----8-|
D|-----------------------------------------------------------------------|
A|-----------------------------------------------------------------------|
E|-----------------------------------------------------------------------|
Gtr.2 cont'd(gtr.1 still strumming same)
e|----------------------------------------------|
B|----------------------------------------------|
G|-4~----------------------8h9--8---4~--(4)/(6)-|
D|----------------------------------------------|
A|----------------------------------------------|
E|----------------------------------------------|

Gtr.1 plays Intro/Verse

Gtr.2 (plays pretty much last gtr.1's triple A chord strum)
e|----------|
B|----------|
G|-8-h-9--8-|
D|----------|
A|----------|
E|----------|

Gtr.1 Prechorus (2x)
("I really came here to hide")
e|-0---0-0---0-0-0-0---0-0-0---0-0-0-0---0-0---0-0-0---0-0-0---0-0-0-|
B|-x---x-x---x-x-x-2---2-2-2---2-2-2-0---0-0---0-0-0---0-0-0---0-0-0-|
G|-4---4-4---4-4-4-2---2-2-2---2-2-2-1---1-1---1-1-1---1-1-1---1-1-1-|
D|-4---4-4---4-4-4-2-------2-------2-2---2-2---2-2-2---2-2-2---2-2-2-|
A|-2-----2-------2-0-------0-------0-2-----2-------2-------2-------2-|
E|-----------------------------------0-----0-------0-------0-------0-|
Gtr.2
e|---------------------------------------------------------------------|
B|---------------------------------------------------------------------|
G|-4~---------11---9~------------6---4~-------------------------8h9--8-|
D|---------------------------------------------------------------------|
A|---------------------------------------------------------------------|
E|---------------------------------------------------------------------|
Gtr.2 cont'd(Gtr.1 still strumming)
e|----------------------------------------|
B|----------------------------------------|
G|-9/(11~)----11---9------------/16\(13~)-|
D|----------------------------------------|
A|----------------------------------------|
E|----------------------------------------|

Gtr.1 Chorus(2x)
e|-0---0-0---0-0-0-0---0-0---0-0-0-0---0-0---0-0-0---0-0-0---0-0-0-|
B|-x---x-x---x-x-x-2---2-2---2-2-2-0---0-0---0-0-0---0-0-0---0-0-0-|
G|-6---6-6---6-6-6-2---2-2---2-2-2-1---1-1---1-1-1---1-1-1---1-1-1-|
D|-6---6-6---6-6-6-2-----2-------2-2---2-2---2-2-2---2-2-2---2-2-2-|
A|-4-----4-------4-0-----0-------0-2-----2-------2-------2-------2-|
E|---------------------------------0-----0-------0-------0-------0-|
Gtr.3 (weird effects...try a delay pedal, with a phaser and chorus pedal or
something...)(2x with gtr.1)
e|-----------------------------19--19-19--19-19--19-19--19-|
B|-17--17-17--17-17--17-17--17--x---x--x---x--x---x--x---x-|
G|--x---x--x---x--x---x--x---x-16--16-16--16-16--16-16--16-|
D|-14--14-14--14-14--14-14--14-----------------------------|
A|---------------------------------------------------------|
E|---------------------------------------------------------|
Gtr.3 cont'd
e|---------------------------------|
B|---------------19--19-19--19-17~-|
G|-16--16-16--16--x---x--x---x--x~-|
D|--x---x--x---x-16--16-16--16-14~-|
A|-14--14-14--14-------------------|
E|---------------------------------|
gtr.2(end of chorus)(hit the 4th fret when Gtr.1 starts verse again)
e|----------------------------------------------------|
B|----------------------------------------------------|
G|-----------------------------------8-h-9--8--------4|
D|----------------------------------------------------|
A|----------------------------------------------------|
E|----------------------------------------------------|
[ Tab from: http://www.guitartabs.cc/tabs/s/socialburn/one_more_day_tab.html ]
Gtr.1 strums Intro/Verse
Gtr.2 plays (end of chorus)(try to get the timing..not too hard)

Gtr.1 plays Prechorus

Gtr.2(timing)
e|-----------------------------------------------------------------|
B|-----------------------------------------------------------------|
G|-8-h-9---8---9/(11~)----11---9~------6---4~-----------8-h-9----8-|
D|-----------------------------------------------------------------|
A|-----------------------------------------------------------------|
E|-----------------------------------------------------------------|
Gtr.2 cont'd(Gtr.1 still strumming)(9h11 is a fast hammer on)
e|-------------------------------------------|
B|-------------------------------------------|
G|-9/(11~)----9h11---9~------------/16\(13~)-|
D|-------------------------------------------|
A|-------------------------------------------|
E|-------------------------------------------|

Chorus(gtrs.1 and 3 play)
Gtr 2 Chorus(violin sounding part)(timing)
e|------------------------------------------|
B|------------------------------------------|
G|-6------8-------9-------------------------|
D|-x------x-------x--------9-------7------6-|
A|-4------6-------7--------x-------x------x-|
E|-------------------------7-------5------4-|

Gtr.1 Bridge(2x)
e|-0---0-0---0-0-0-0---0-0---0-0-0-0---0-0---0-0-0---0-0-0---0-0-0-|
B|-x---x-x---x-x-x-x---x-x---x-x-x-2---2-2---2-2-2---2-2-2---2-2-2-|
G|-4---4-4---4-4-4-6---6-6---6-6-6-2---2-2---2-2-2---2-2-2---2-2-2-|
D|-4---4-4---4-4-4-6---6-6---6-6-6-2-----2-------2-------2-------2-|
A|-2-----2-------2-4-----4-------4-0-----0-------0-------0-------0-|
E|-----------------------------------------------------------------|
Gtr.3
e|-----------------------------19--19-19--19-19--19-19--19---------------|
B|-17--17-17--17-17--17-17--17--x---x--x---x--x---x--x---x---------------|
G|--x---x--x---x--x---x--x---x-16--16-16--16-16--16-16--16-16--16-16--16-|
D|-14--14-14--14-14--14-14--14------------------------------x---x--x---x-|
A|---------------------------------------------------------14--14-14--14-|
E|-----------------------------------------------------------------------|
Gtr.3 cont'd
e|-----------------------------19--19-19--19-19--19-19--19-------------------|
B|-17--17-17--17-17--17-17--17--x---x--x---x--x---x--x---x-------------------|
G|--x---x--x---x--x---x--x---x-16--16-16--16-16--16-16--16-16---18---20---21-|
D|-14--14-14--14-14--14-14--14------------------------------x----x----x----x-|
A|---------------------------------------------------------14---16---18---19-|
E|---------------------------------------------------------------------------|
Gtr.2(violin part...This is wrong but oh well..good enough)(timing)
e|-----------------------------------|
B|-----------------------------------|
G|-9-------8-------9------11-----13--|
D|-x-------x-------x-------x------x--|
A|-7-------6-------7-------9-----11--|
E|-----------------------------------|

Gtr.1 plays Intro/Verse
Gtr.2(timing)(plays end of gtr.1's triple chord strum)
e|-----------------------------------------------------------------|
B|-----------------------------------------------------------------|
G|-8-h-9---8---9/(11~)----11---9~------6---4~-----------8-h-9----8-|
D|-----------------------------------------------------------------|
A|-----------------------------------------------------------------|
E|-----------------------------------------------------------------|
Gtr.2 cont'd(Gtr.1 still strumming)(9h11 is a fast hammer on)
e|-------------------------------------------|
B|-------------------------------------------|
G|-9/(11~)----9h11---9~------------/16\(13~)-|
D|-------------------------------------------|
A|-------------------------------------------|
E|-------------------------------------------|

Chorus(all gtr. parts)(extended)

Gtr.1 ends with E chord
Gtr.2 ends with 4x6xxx
Gtr.3 ends with 
e|-----------------------------19--19-19--19-19--19-19--19---------------|
B|-17--17-17--17-17--17-17--17--x---x--x---x--x---x--x---x---------------|
G|--x---x--x---x--x---x--x---x-16--16-16--16-16--16-16--16-16--16-16--16-|
D|-14--14-14--14-14--14-14--14------------------------------x---x--x---x-|
A|---------------------------------------------------------14--14-14--14-|
E|-----------------------------------------------------------------------|

hope you like it...it wont be perfect...I've sent a couple of tabs before...
But I'm only 14 and played for a year...so the tabs wouldnt be perfect..
comments or corrections? send to hanginwitastaple@hotmail.com
Comments