Socialburn - Everyone Chords & Tabs

 

Everyone Chords & Tabs

Socialburn Chords & Tabs

Version: 1 Type: Tab 0 ratings
1 star 2 stars 3 stars 4 stars 5 stars
comments

Everyone Tab

----------------------------------------------------------------------------
			     Socialburn - Everyone
----------------------------------------------------------------------------
Tabbed by: Chris
Email: igneikslaif@yahoo.com

Tuning: Standard
[ Tab from: http://www.guitartabs.cc/tabs/s/socialburn/everyone_tab.html ]
e|------------12-------------------12------------------|
B|----12-10-9-----12-10-9-12-10-9-----12-10-9-12-10-9--|
G|-----------------------------------------------------|
D|-----------------------------------------------------|
A|-----------------------------------------------------|
E|-----------------------------------------------------|
                                                         x2
e|--12-------------------------------------------------|
B|-----12-10-9--7-9-9h10-------------------------------|
G|------------------------13---------------------------|
D|-----------------------------------------------------|
A|-----------------------------------------------------|
E|-----------------------------------------------------|
Comments