Socialburn - Down Chords & Tabs

 

Down Chords & Tabs

Socialburn Chords & Tabs

Version: 2 Type: Tab 0 ratings
1 star 2 stars 3 stars 4 stars 5 stars
comments

Down Tab

   
                ********************************************
                ***               SOCIALBURN             ***
                ***                 DOWN                 ***
                ********************************************
P.M.-Palm Mute
The part in between the | | below it is not P.M.                               

-Intro/Verse-
the guitarist plays a little somthing i dont know
what it is then it goes to this -

P.M----------| |-----------| |-----------| | |----| |
E-----------------------------------------------------
B-----------------------------------------------------
G-----------------------------------------------------
D-2-2-2-5-5-5-5-2-2-2-5-5-5-5-2-2-2-5-5-5-5-----------
A-0-0-0-3-3-3-3-0-0-0-3-3-3-3-0-0-0-3-3-3-3-3-3-3-3-3-
E-------------------------------------------1-1-1-1-1- <-Has distortion
                                                   on some parts in verse
 
-Pre Chorus-Distortion
"like nothin..."
E------------------------
B------------------------
G------------------------
D------------------------
A-3-3-3-3-3-3-/5-5-5-5-5-
E-1-1-1-1-1-1-/3-3-3-3-3-
[ Tab from: http://www.guitartabs.cc/tabs/s/socialburn/down_tab_ver_2.html ]
-Chorus-Distortion
E-----------------------------------------------------------------
B-----------------------------------------------------------------
G-----------------------------------------------------------------
D-----------2-2-2-2-----------2-2-2-2-------------2-2-2-2---------
A-3-3-3-3-3-0-0-0-0-3-3-3-3-3-0-0-0-0-3-3-3-3-3-3-0-0-0-0-5-5-5-5-
E-1-1-1-1-1---------1-1-1-1-1---------1-1-1-1-1-1---------3-3-3-3-

-After Chorus right before solo-
E-----------------------------------------------------------
B-----------------------------------------------------------
G-----------------------------------------------------------
D-----------------------------------------------------------
A-3-5-3-3-5-5-5-5-3-5-3-3-5-5-5-3-5-3-3-5-5-5-3-5-3-3-5-5-5-
E-1-3-1-1-3-3-3-3-1-3-1-1-3-3-3-1-3-1-1-3-3-3-1-3-1-1-3-3-3-

-Solo-
E---------------------------------------------
B-----------------8-8-8-8---------------------
G-7-9-7-9-7-9-7-9---------7-9-7-9-5-4-5-4-5-4-
D---------------------------------------------
A---------------------------------------------
E---------------------------------------------

E------------------------------------------------
B----------------8-8-8-8-------------------------
G-7-9-7-9-7-9-7-9--------7-9-7-9-5-4-5-4-5-4-5-7-
D------------------------------------------------
A------------------------------------------------
E------------------------------------------------
If you listen to the last chorus it plays the solo in the background...
-Ending-               
                  hold
                   \|/
A-5-5-5-5-5-5-5-5-5-5
E-3-3-3-3-3-3-3-3-3-3
Comments