Socialburn - Down Chords & Tabs

 

Down Chords & Tabs

Socialburn Chords & Tabs

Version: 1 Type: Bass Tab 0 ratings
1 star 2 stars 3 stars 4 stars 5 stars
comments

Down Bass Tab

   
This is based on the guitar tabs. Please listen to the song for exact rhythm
because the part is not a steady beat.

==VERSE==

G-----------------------------------------------------
D-----------------------------------------------------
A--0-0-0-3-3-3-3-0-0-0-3-3-3-3-0-0-0-3-3-3-3----------
E-------------------------------------------1-1-1-1-1-

==PRE-CHORUS BUILDUP== ("like nothin...")

G-----------------------------------------------------
D-----------------------------------------------------
A-----------------------------------------------------
E--1-1-1-1-1-1-1-1-3-3-3-3-3-3-3-3--------------------

==CHORUS==
[ Tab from: http://www.guitartabs.cc/tabs/s/socialburn/down_btab.html ]
G----------------------|        |---------
D----------------------|3x, then|---------
A-------------0-0-0-0--|-       |---------
E--1-1-1-1-1-----------|-       |-3-3-3-3-

==PRE-SOLO (the weird part of the song, this comes from the guitar tabs)==

G-----------------------------------------------------------
D-----------------------------------------------------------
A-----------------------------------------------------------
E-1-3-1-1-3-3-3-3-1-3-1-1-3-3-3-1-3-1-1-3-3-3-1-3-1-1-3-3-3-

==SOLO==
Play the chorus under the solo.

==ENDING==
E-3 (same note, listen for rhythm, and hold it out at the end.)


Enjoy!
Josh
Comments