Social Distortion - Winners And Losers Chords & Tabs

 

Winners And Losers Chords & Tabs

Social Distortion Chords & Tabs

Version: 1 Type: Chords 0 ratings
1 star 2 stars 3 stars 4 stars 5 stars
comments

Winners And Losers Chords

   
-------------------------------------------------------------------------------
			   Social Distortion
                           Winners And Losers 
-------------------------------------------------------------------------------
Tabbed by: Kurt Guenther 
Email: nobrakes90@netscape.net

This is another great song by an awesome band that's been around for a long time.
This song is off their latest album, Sex, Love And Rock And Roll. 

Standard Tuning 

CAPO ON 1ST FRET!
[ Tab from: http://www.guitartabs.cc/tabs/s/social_distortion/winners_and_losers_crd.html ]
Chords
            D      Am      Em       G
------------2-------0-------0-------3-------------|
------------3-------1-------0-------3-------------|
------------2-------2-------0-------0-------------|
------------0-------2-------2-------0-------------|
------------x-------0-------2-------2-------------|
------------x-------x-------0-------3-------------|

Intro:
D,Am,Em,G

Verse:
D,Am,Em,G

Pre-Chorus:
D,D

Chorus:
Em,G,D,Am
Comments