Social Distortion - When The Angels Sing Chords & Tabs

 

When The Angels Sing Chords & Tabs

Social Distortion Chords & Tabs

Version: 1 Type: Tab 0 ratings
1 star 2 stars 3 stars 4 stars 5 stars
comments

When The Angels Sing Tab

   
#----------------------------------PLEASE NOTE---------------------------------#
#This file is the author's own work and represents their interpretation of the #
#song. You may only use this file for private study, scholarship, or research. #
#------------------------------------------------------------------------------
From DefKoRn347@aol.com Fri Apr 18 10:42:33 1997
Date: Tue, 18 Mar 1997 16:50:08 -0500 (EST)
From: DefKoRn347@aol.com
To: guitar@olga.net
Subject: Tab:When The Angels Sing by Social Distortion

When The Angels Sing By Social Distortion
Tabbed by Shirantha Fernando
Off the Album White Light, White Heat, White Trash
This song Rules

Intro/Chorus
  F5          E5      D5      C5      Bb5
e-----------------------------------------
b-----------------------------------------
g-10-10-10-10-9-9-9-9-7-7-7-7-5-5-5-5-3---
d-10-10-10-10-9-9-9-9-7-7-7-7-5-5-5-5-3---
a--8--8--8--8-7-7-7-7-5-5-5-5-3-3-3-3-1---
e-----------------------------------------

  Bb5   C5
e-------------------
b-------------------
g-3-3--/5-5-5-5-5---
d-3-3-/-5-5-5-5-5---
a-1-1/--3-3-3-3-3---
e-------------------

[ Tab from: http://www.guitartabs.cc/tabs/s/social_distortion/when_the_angels_sing_tab.html ]
Verse:
  pm_    pm_    pm_    pm_    Bb5        C5
e---------------------------------------------------
b---------------------------------------------------
g-----------------------------3-3-3-3---/5-5-5-5-5-5
d-3-3-3--3-3-3--3-3-3--3-3-3--3-3-3-3--/-5-5-5-5-5-5
a-3-3-3--3-3-3--3-3-3--3-3-3--1-1-1-1-/--3-3-3-3-3-3
e-1-1-1--1-1-1--1-1-1--1-1-1------------------------

If you want the lyrics e-mail me



********************************************************************************************************

********************************************************************************************************

When The Angels Sing - Social Distortion

By: Los Pepto Bismol--DTgringo@aol.com

Intro/Chorus
e|--------------------------------------------------------------------|
B|--------------------------------------------------------------------|
G|-10--9--7--5--3-/-5-------------------------------------------------|
D|-10--9--7--5--3-/-5-------------------------------------------------|
A|--8--7--5--3--1-/-3-------------------------------------------------|
E|--------------------------------------------------------------------|
Verse
e|--------------------------------------------------------------------|
B|--------------------------------------------------------------------|
G|----3--5------------------------------------------------------------|
D|-3--3--5------------------------------------------------------------|
A|-3--1--3------------------------------------------------------------|
E|-1------------------------------------------------------------------|
  pm
===========================================================================
Comments