Social Distortion - Under My Thumb Chords & Tabs

 

Under My Thumb Chords & Tabs

Social Distortion Chords & Tabs

Version: 1 Type: Bass Tab 0 ratings
1 star 2 stars 3 stars 4 stars 5 stars
comments

Under My Thumb Bass Tab

  I was searching and searching for this tab all over the internet but couldnt find
it so I decided to tab it out my self. I hope this helps all of you that couldnt find
it either.



Intro
G:--------------------------------------------------------|
D:---8--10----------6--8---------4--6---------4--6--------|
A:-8--------8--8--6------6--6--4------4--4--4------4--4~--|
E:--------------------------------------------------------|
repeat that 3 times and let 4 ring 

[ Tab from: http://www.guitartabs.cc/tabs/s/social_distortion/under_my_thumb_btab.html ]
Verse
G:-------------------------------------------------------------------|
D:-------------------------------------------------------------------|
A:-8-8-8-8-8-8-8-8-6-6-6-6-6-6-6-6-4-4-4-4-4-4-4-4-4-4-4-4-4-4-4-4---|
E:-------------------------------------------------------------------|
repeat twice then go directly into chorus


Chorus
G-----------------------------------------------------------------|
D-----------------------------------------------------------------|
A---------------------------------2-2-2-2-2-2-2-2-1-1-1-1-1-1-1-1-|
E4-4-4-4-4-4-4-4-4-4-4-4-4-4-4-4----------------------------------|

Chorus cont.
G:-------------------------------------------------------------------|
D:-------------------------------------------------------------------|
A:------------------6-6-6-6--4-4-4-4---------------------------------|
E:-1-1-1-1-1-1-1-1-------------------4-4-4-4-4-4-4-4-4-4-4-4-4-4-4-4-|


ending
G--------------------------------------------------|
D--------------------------------------------------|
A-6-6-6-6-6-6-6--4-4-4-4-4-4-4-4-------------------|
E--------------------------------4-4-4-4-4-4-4-4~--|
Comments