Social Distortion - Story Of My Life Chords & Tabs

 

Story Of My Life Chords & Tabs

Social Distortion Chords & Tabs

Version: 3 Type: Bass Tab 0 ratings
1 star 2 stars 3 stars 4 stars 5 stars
comments

Story Of My Life Bass Tab

INTRO  X 3

G-------------------------------------------------------------------------------|
D--4-4-4-4----------------------------------------------------------------------|
A-----------2-2-2-2--4-4-4-4-4-4-4-4--------------2-2-2-2--4-4-4-4-4-4-4-4------|
E-------------------------------------2-2-2-2-----------------------------------|

CHORUS x4 ( THIS PART ONLY # TIMES )         ON THE FORTH PART,
                                                 DO THIS ::
G-------------------------------------|-----------------------------------------|
D-------------------------------------|-----------------------------------------|
A--------2-2-2-2--4-4-4-4-4-4-4-4-----|-----------2-2-2-2--4-4-4-4-4-2-1--------|
E-2-2-2-2-----------------------------|--2-2-2-2-------------------------4-2----|


VERSE
[ Tab from: http://www.guitartabs.cc/tabs/s/social_distortion/story_of_my_life_btab_ver_3.html ]
G------------------------------------------------------------------------------|
D------------------------------------------------------------------------------|
A---------2-2-2-2-4-4-4-4-4-2-1------------------------------------------------|
E-2-2-2-2-----------------------4-2--------------------------------------------|

G------------------------------------------------------------------------------|
D------------------------------------------------------------------------------|
A---------2-2-2-2-4-4-4-4-4-2-1------------------------------------------------|
E-2-2-2-2-----------------------4-2--------------------------------------------|

G------------------------------------------------------------------------------|
D---------------------------1-3-4-4-4-4-1-1-1-1--------------------------------|
A---------2-2-2-2-4-4-4-4-4---------------------4-4-4-4-4-2-1------------------|
E-2-2-2-2-----------------------------------------------------4-2--------------|
Comments