Social Distortion - Story Of My Life Chords & Tabs

 

Story Of My Life Chords & Tabs

Social Distortion Chords & Tabs

Version: 2 Type: Bass Tab 0 ratings
1 star 2 stars 3 stars 4 stars 5 stars
comments

Story Of My Life Bass Tab

Artist: Social Distortion
Song: Story Of My Life
Album: Social Distortion/Live At the Roxy
Tabbed by: Niall 'Uncle Clitsta' (Lates_dude@hotmail.com)
Tuning: standard
Note: Tabbed this before, but thats when I didnt play it to the CD. Not sure
bout the accent.
It might have some differnces to the one on the offical album, I tabbed it to
Live At The Roxy coz i dont have Social Distortion.

Legend
-------
. = staccato

[ Tab from: http://www.guitartabs.cc/tabs/s/social_distortion/story_of_my_life_btab_ver_2.html ]
G|------------------------------------|
D|------------------------------------|
A|---------4-4-4-4--6-6-6-6-6-6-6-6---|
E|-4-4-4-4----------------------------|

when you listen to the song there is a bit of a decent sometimes
after jamming for a while i got it
G|-----------------------------------------|
D|-----------------------------------------|
A|---------3-3-3-3--5-5-5-5.--5--3--2--0---|
E|-3-3-3-3---------------------------------|

Accent at times
G|-----------------------------------------|
D|---------------------------4--5--6--8----|
A|---------3-3-3-3--5-5-5-5.---------------|
E|-3-3-3-3---------------------------------|

Great Song, Clitsta
Comments