Social Distortion - Sometimes I Do Chords & Tabs

 

Sometimes I Do Chords & Tabs

Social Distortion Chords & Tabs

Version: 2 Type: Tab 0 ratings
1 star 2 stars 3 stars 4 stars 5 stars
comments

Sometimes I Do Tab

Song: Sometimes I Do
Artist: Social Distortion
Album: Somewhere Between Heaven and Hell
Tuning: 1/2 Step Down

Since there were no accurate tabs for this song ANYWHERE, and it is such an
excellent song, I decided to tab it. It is the correct way to play it, and
doesn't have you jumping all over the fretboard like some of the other tabs.
Enjoy.

Chord Progression -- Whole Song
E |---------------------------------|
B |---------------------------------|
G |-------5--5--------------7--7----|
D |-5--5--5--5--5-----5--5--7--7--5-|
A |-5--5--3--3--5-----5--5--5--5--5-|
E |-3--3--------3-----3--3--------3-|


Intro
E |-------3--3--3--3-----3-----------3--3----------------|
B |-------3--3--3--3-h5--5--3--------3--3----------------|
G |-4--5-----------------------4-----------4--2--0--2--4-|
D |------------------------------------------------------|
A |------------------------------------------------------|
E |------------------------------------------------------|

E |-3--3--3--3-----3-----------3--3----------------------|
B |-3--3--3--3-h5--5--3--------3--3----------------------|
G |----------------------4-----------0--0--5--4--2--0----|
D |------------------------------------------------------|
A |------------------------------------------------------|
E |------------------------------------------------------|

E |---------------------------------------------------------------|
B |---------------------------------------------------------------|
G |-0--0--0-----0-----0--0-----0-----0--2--2--2-b3--2-b3--0-------|
D |----------2-----2--------2-----2-------------------------------|
A |---------------------------------------------------------------|
E |---------------------------------------------------------------|

E |---------------------------------------------------------------|
B |---------------------------------------------------------------|
G |-0--0--0-----0-----0--0-----0-----0----------------------------|
D |----------2-----2--------2-----2--------0--0--2--0-------------|
A |----------------------------------------------------1--0-------|
E |----------------------------------------------------------3----|

[ Tab from: http://www.guitartabs.cc/tabs/s/social_distortion/sometimes_i_do_tab_ver_2.html ]
Solo
E |-------------------------------------------------|
B |-------12----15-15-15-15----12----15-------------|
G |-14-14-14b16----------------14b16----16b14-12-12-|
D |-------------------------------------------------|
A |-------------------------------------------------|
E |-------------------------------------------------|

E |-------------15-15-15-15----------15---------------|
B |-------12-------------------12---------------------|
G |-14-14-14b16----------------14b16----16b14-12-12---|
D |---------------------------------------------------|
A |---------------------------------------------------|
E |---------------------------------------------------|

E |-10-10/12----15-15-15\12-12\10-10/12----12-12/15-15-15-15\12-12-12-12\10-|
B |-------------------------------------------------------------------------|
G |-------------------------------------------------------------------------|
D |-------------------------------------------------------------------------|
A |-------------------------------------------------------------------------|
E |-------------------------------------------------------------------------|


	  x2
E |-10-------|-------------------------------------------------------------|
B |----12-12-|-----------------------------------------------------15------|
G |----------|--12-12-12----12----12----12----12----12----14-14b16----12---|
D |----------|-----------14----14----------14----14------------------------|
A |----------|-------------------------------------------------------------|
E |----------|-------------------------------------------------------------|

E |----------------------------------------------------------------|
B |----------------------------------------------------------------|
G |-12-12-12----12----12----12----12----12-------------------------|
D |----------14----14----------14----14-------12-12-14-12----------|
A |-------------------------------------------------------13-10-10-|
E |----------------------------------------------------------------|


								      x2
E |----------------------------------------------------------------------|
B |-12-------12----12-13-13-13-13-12----12-------12----12-15-15-15-15-12-|
G |----12-12----12-12-12-12-12-12-12-------12-12----12-12-14-14-14-14-12-|
D |----------------------------------------------------------------------|
A |----------------------------------------------------------------------|
E |----------------------------------------------------------------------|


Ending
E |------------------------|
B |------------------------|
G |------------------------|
D |-0--0--2--0-----------5-|
A |-------------1--0-----5-|
E |----------------------3-|

Questions? Comments? Requests?
sleepingaides@yahoo.com
Please do not use on your site without asking for my permission.
Comments