Social Distortion - Sick Boys Chords & Tabs

 

Sick Boys Chords & Tabs

Social Distortion Chords & Tabs

Version: 1 Type: Tab 0 ratings
1 star 2 stars 3 stars 4 stars 5 stars
comments

Sick Boys Tab

   
#----------------------------------PLEASE NOTE---------------------------------#
#This file is the author's own work and represents their interpretation of the #
#song. You may only use this file for private study, scholarship, or research. #
#------------------------------------------------------------------------------##

Subject: Social Distortion - Sick Boys
To: alt.guitar.tab@animal-farm.nevada.edu,
        rec.music.makers.guitar.tablature@animal-farm.nevada.edu
Date: Sat, 23 Jan 1993 20:31:55 -0500 (EST)
Cc: jamesb@nevada.edu
X-Mailer: ELM [version 2.4 PL13]
Mime-Version: 1.0
Content-Type: text/plain; charset=US-ASCII
Content-Transfer-Encoding: 7bit
Content-Length: 2856      

Social Distortian - Sick Boys

VERSES AND CHORUS:
G# G# C# D#
over and over again throughout the whole song.

INTRO:

e----------------|-----------------|-----------------|
b-13-11-9-9------|-9-9--------9-13-|-11-11-11-11-----|
g----------------|-----------------|-----------------|
D----------------|-----------------|-----------------|
A----------------|-----------------|-----------------|
E----------------|-----------------|-----------------|
[ Tab from: http://www.guitartabs.cc/tabs/s/social_distortion/sick_boys_tab.html ]
e----------------|-----------------|-----------------|
b-13-11-9-9------|-9-9--------9----|-----------------|
g----------------|---------------8-|-----------------|
D----------------|-----------------|-----------------|
A----------------|-----------------|-----------------|
E----------------|-----------------|-----------------|

e----------------|-----------------|-----------------|
b-13-11-9-9------|-9-9--------9-13-|-11-11h13p11-----|
g----------------|-----------------|-----------------|
D----------------|-----------------|-----------------|
A----------------|-----------------|-----------------|
E----------------|-----------------|-----------------|

e----------------|-11-11-11-13-11--|-----------------|
b-9-9-9----11h13-|-11-11-11-11-11--|-----------------|
g----------------|-----------------|-----------------|
D----------------|-----------------|-----------------|
A----------------|-----------------|-----------------|
E----------------|-----------------|-----------------|



STRUCTURE:

intro
verse1
intro again
verse2

Corrections welcome

mike roark > "Man was matter, that was Snowden's secret. Drop him out a window
           > and he'll fall. Set fire to him and he'll burn. Bury him and he'll
           > rot like other kinds of garbage. The spirit gone, man is garbage.
           > That was Snowden's secret. Ripeness was all."   - J. Heller
Comments